Guitaretab - guitar tabs
Song name
# A B C D E F G H I J K L M N O P Q R S T U V W X Y Z

Psychostick - Red Snow tab

tuning: Dropped C 
(low to high)
C#-G#-C#-F#-A#-D#

RED SNOW 
by PSYCHOSTICK


  intro:
|-----------------------------------------|
|-----------------------------------------|
|-----------------------------------------|
|-----------------------------------------| x2
|-----------------------------------------|
|-100-0-0-0-00-00-00-00-0-0---------------|
PM--------------------------|


 verse:
|-----------------------------------------|
|-----------------------------------------|
|-----------------------------------------|
|-----------------------------------------| x3
|-----------------------------------------|
|-100-0-0-0-00-00-00-00-5-310-0-3---------|
PM-------------------------------|

 then:
|-----------------------------------------|
|-----------------------------------------|
|-----------------------------------------|
|-----------------------------------------|
|-------------------------222-222---------|
|-100-0-0-000-0-000-0-000-222-222---------|
PM-------------------------------|

 chorus:
|-------------------------------------------|
|-6-6-6--------------5-5-x-5------6---------|
|-5-5-5--------------4-4-x-4------5---------|
|-3-3-3---3----------2-2-x-2----2-----------|
|-3-3-3---3---3*-3*--2-2-x-2----2-----------|
|-3-3-3---3----------2-2---2----2-----------|
         A.H.------|

|--------------------------------------------|
|-6-6-6---------------5-5-x-5------6---------|
|-5-5-5---------------4-4-x-4------5---------|
|-3-3-3---3-----------2-2-x-2----2---2-------|
|-3-3-3---3--3*-3*-3*-2-2-x-2----2---2-------|
|-3-3-3---3-----------2-2---2----2---2-------|
         A.H.-------|

|--------------------------------------------|
|-6-6-6---------------5-5-x-5------6---------|
|-5-5-5---------------4-4-x-4------5---------|
|-3-3-3---3-----------2-2-x-2----2-----------|
|-3-3-3---3--3*-3*-3*-2-2-x-2----2-----------|
|-3-3-3---3-----------2-2---2----2-----------|
         A.H.-------|

 chorus ending 1:
|-----------------------------------------|
|-----------------------------------------|
|-----------------------------------------|
|-2-----2-2-------1-----1-1---------------|
|-2-2-222-2-2-2-2-1-1-111-1-1-1-1---------|
|-2-2-222-2-2-2-2-1-1-111-1-1-1-1---------|
PM  ----    -----   ----    -----
 
 chorus ending 2:
|-----------------------------------------|
|-----------------------------------------|
|-----------------------------------------|
|-4-----4-4-------3-----3-3---------------| x2
|-4-4-444-4-4-4-4-3-3-333-3-3-3-3---------|
|-4-4-444-4-4-4-4-3-3-333-3-3-3-3---------|
PM  ----    -----   ----    -----

 then
|---------------------------------|------------------------------|
|-7-7-7-7-7-7-7-7-7-7-7-7-7-7-7-7-|-6-6-6-6-6-6-6-6-6-----(6)----|
|-6-6-6-6-6-6-6-6-6-6-6-6-6-6-6-6-|-5-5-5-5-5-5-5-5-5-----(5)----|
|-4-4-4-4-4-4-4-4-4-4-4-4-4-4-4-4-|-3-3-3-3-3-3-3-3-3-----(3)----|
|-4-4-4-4-4-4-4-4-4-4-4-4-4-4-4-4-|-3-3-3-3-3-3-3-3-3-----(3)----|
|-4-4-4-4-4-4-4-4-4-4-4-4-4-4-4-4-|-3-3-3-3-3-3-3-3-3-----(3)----|

  then repeat verse
  and chorus

 after that chorus comes 
   the awesome interlude:

 Guitar 1
|----------------------------------|---------------------------------|
|----------------------------------|---------------------------------|
|----------------------------------|---------------------------------| _
|----------------------------------|-3-------0-----2---------0-------|  |
|----------------0-0-0-0-----------|-3-0-0-0-0-0-0-2-0-0-0-0-0-0-0-0-|  |
|-2-2-2-2-2^-2-0-0-0-0-0-5-5-7-7-3-|-3-0-0-0-0-0-0-2-0-0-0-0-0-0-0-0-|  |
| PM           -   -----               -----   ---   -------   -----    |
| (^=bend up 1/2 step)                                                  | x2
|                                                                       |
| Guitar 2                                                              |
|----------------------------------|---------------------------------|  |
|----------------------------------|---------------------------------|  |
|----------------------------------|---------------------------------| _|
|----------------------------------|-3-------0-----2---------0-------|
|---------------0-0-0-0------------|-3-0-0-0-0-0-0-2-0-0-0-0-0-0-0-0-|
|-6-6-6-6-6-6-7-0-0-0-0-5-5-7-7-3--|-3-0-0-0-0-0-0-2-0-0-0-0-0-0-0-0-|
 PM               -----                -----   ---   -------   -----

i can't figure out 
what josh does for the clean part...

but these are the chords he uses per bar (lots of crunch)
|-------|-------|-------|-------|
|-------|-------|-------|-------|
|-------|-------|-------|-------|
|--4----|--3----|--4----|--3----|
|--4----|--3----|--4----|--3----|
|--4----|--3----|--4----|--3----|

|-------|-------|-------|-------|
|-------|-------|-------|-------|
|-------|-------|-------|-------|
|--2----|--1----|--2----|--1----|
|--2----|--1----|--2----|--1----|
|--2----|--1----|--2----|--1----|


then the bridge back 
to the interlude:
[ Tab from: http://www.guitaretab.com/p/psychostick/167926.html ]
 bridge pt.1
|----------------|
|------4----4----|
|------2----2----|
|----------------| x8
|-0-0---000------|
|-0-0---000------|
PM---   ---

 bridge pt.2
|---------------------------------|----------------------------------|
|---------------------------------|----------------------------------|
|---------------------------------|----------------------------------|
|---------------------------------|----------------------------------| 
|-0--0--0-5--5--5-1--1--1-7--7--7-|-4--4--4-9--9--9-6--6--6-10\\-----|
|-0--0--0-5--5--5-1--1--1-7--7--7-|-4--4--4-9--9--9-6--6--6-10\\-----|
PM---------------------------------------------------------|

 back to the 
 awesome part

 Guitar 1
|----------------------------------|---------------------------------|
|----------------------------------|---------------------------------|
|----------------------------------|---------------------------------| _
|----------------------------------|-3-------0-----2---------0-------|  |
|----------------0-0-0-0-----------|-3-0-0-0-0-0-0-2-0-0-0-0-0-0-0-0-|  |
|-2-2-2-2-2^-2-0-0-0-0-0-5-5-7-7-3-|-3-0-0-0-0-0-0-2-0-0-0-0-0-0-0-0-|  |
| PM           -   -----               -----   ---   -------   -----    |
| (^=bend up 1/2 step)                                                  | x4
|                                                                       |
| Guitar 2                                                              |
|----------------------------------|---------------------------------|  |
|----------------------------------|---------------------------------|  |
|----------------------------------|---------------------------------| _|
|----------------------------------|-3-------0-----2---------0-------|
|---------------0-0-0-0------------|-3-0-0-0-0-0-0-2-0-0-0-0-0-0-0-0-|
|-6-6-6-6-6-6-7-0-0-0-0-5-5-7-7-3--|-3-0-0-0-0-0-0-2-0-0-0-0-0-0-0-0-|
 PM               -----                -----   ---   -------   -----


 pre-outro:

 Guitar 1
|----------------------------------|---------------------------------|
|----------------------------------|---------------------------------|
|----------------------------------|---------------------------------|
|----------------------------------|---------------------------------|_
|----------------0-0-0-0-0-000-000-|-0-0-0-0-0-0-0-0-0-0-0-0-0-0-0-0-| |
|-2-2-2-2-2^-2-0-0-0-0-0-0-000-000-|-0-0-0-0-0-0-0-0-0-0-0-0-0-0-0-0-| |
| PM           -   ---------------   -------------------------------|  |             
| (^=bend up 1/2 step)                                                 |
|                                                                      | x4
| Guitar 2                                                             |
|----------------------------------|---------------------------------| |
|----------------------------------|---------------------------------| |
|----------------------------------|---------------------------------|_|
|----------------------------------|---------------------------------|
|---------------0-0-0-0-0-000-000--|-0-0-0-0-0-0-0-0-0-0-0-0-0-0-0-0-|
|-6-6-6-6-6-6-7-0-0-0-0-0-000-000--|-0-0-0-0-0-0-0-0-0-0-0-0-0-0-0-0-|
 PM               ---------------    -------------------------------|         


 outro:
                                             (1st and 3rd ending
 Guitar 1                                        for guitar 1)
|----------------------------------|---------------------------------|
|----------------------------------|---------------------------------|
|----------------------------------|---------------------------------|
|----------------------------------|-2-2-2-2-2-2-2-2-3-3-3-3-3-3-3-3-|_
|----------------0-0-0-0-0-000-000-|-2-2-2-2-2-2-2-2-3-3-3-3-3-3-3-3-| |
|-2-2-2-2-2^-2-0-0-0-0-0-0-000-000-|---------------------------------| |
| PM           -   ---------------   -------------------------------|  |             
| (^=bend up 1/2 step)                                                 |
|                                                                      | x4
| Guitar 2                                                             |
|----------------------------------|---------------------------------| |
|----------------------------------|---------------------------------| |
|----------------------------------|---------------------------------|_|
|----------------------------------|---------------------------------|
|---------------0-0-0-0-0-000-000--|-0-0-0-0-0-0-0-0-0-0-0-0-0-0-0-0-|
|-6-6-6-6-6-6-7-0-0-0-0-0-000-000--|-0-0-0-0-0-0-0-0-0-0-0-0-0-0-0-0-|
 PM               ---------------    -------------------------------|     

  (2nd and 4th ending 
      for guitar 1)
|---------------------------------|
|---------------------------------|
|---------------------------------|
|-2-2-2-2-2-2-2-2-1-1-1-1-1-1-1-1-|
|-2-2-2-2-2-2-2-2-1-1-1-1-1-1-1-1-|
|---------------------------------|    
  

woohoo!! finally done... for any questions or mistakes that i made my email
is vettefreak618@yahoo.com. feedback is much appreciated.

P.S. PSYCHOSTICK RULES!!
Related for Red Snow tab
Advertisement will be closed in 10 seconds