Guitaretab - guitar tabs
Song name
# A B C D E F G H I J K L M N O P Q R S T U V W X Y Z

Psychostick - We Ran Out Of Cd Space tab

hello

This is my first tab ever, and its still not quite.. all there,
but since no one else has posted a tab of this song yet, I hope this might
encurage people to finnish this one.

Chords:
        G                Bm               F                Am
E--3----------3--|--2----------7--|--1----------5--|--0----------5--|
B--0----------3--|--3----------7--|--1----------6--|--1----------5--|
G--0----or----4--|--4----or----7--|--2----or----5--|--2----or----5--|
D--0----------5--|--4----------9--|--3----------7--|--2----------7--|
A--2----------5--|--2----------9--|--X----------8--|--0----------7--|
E--1----------3--|--X----------7--|--X----------X--|--X----------5--|

I put up 2 positions of each chord.
The easy way to play would be to pick the first of each.

Intro:

E----0---7---8-------7---------------0---7---8-------7---0---------|
B----------------0-------0---0---0---------------0-----------------|
G--0---0---0---0---0---0---0---0---0---0---0---0---0---0---0---0---|
D---7---7---7---7---7---7---7---7---7---7---7---7---7---7---7---7--|
A-7---7---7---7---5---5---5---5---7---7---7---7---5---5---5---5----|
E------------------------------------------------------------------|

Verse:

E------------------------------------------------------------------|
B----0---0---0---0---0---0---0---0---0---0---0---0---0---0---0---0-|
G--0---0---0---0---0---0---0---0---0---0---0---0---0---0---0---0---|
D---7---7---7---7---7---7---7---7---7---7---7---7---7---7---7---7--|play 2X
A-7---7---7---7---5---5---5---5-------------------5---5---6---6----|
E---------------------------------8---8---8---8--------------------|

I haven't got the second part all figured out yet, but I think its something like this:

  C      Am         Em
E----------------------------------|
B----1---1---1---1---0---0---0---0-|
G--0---0---2---2---0---0---0---0---|
D---2---2---2---2---2---1---0------|play 3X
A-3---3---0---0-----------------4--|
E-----------------0---0---0---0----|

Then add

  G        A
E----3-----------------------------|
B---0-0----2--3--2------2--3--2----|
G--0---0-2--2--2--2-2-2--2--2--2---|
D-0-------2--2--2--2---2--2--2--2--|
A-------0------------0-------------|
E----------------------------------|


Chorus:

G           Bm                F                Am          G
What if the world was made of other worlds combined into a world just like

    Bm                Am
the world you started with.

G         Bm               F                  Am             G
What if another world then ate the world made out of donuts, making all the

Bm           Am
donut people pissed.

[ Tab from: http://www.guitaretab.com/p/psychostick/185982.html ]
The last verse starts off different...
My guess is it would be something like this:

E-----------------------------------------------------------------|
B-0-0-0-0-0-0-0-0-0-0-0-0-0-0-0-0-0-0-0-0-0-0-0-0-0-0-0-0-0-0-0-0-|
G-0-0-0-0-0-0-0-0-0-0-0-0-0-0-0-0-0-0-0-0-0-0-0-0-0-0-0-0-0-0-0-0-|
D-2-2-2-2-2-2-2-2-1-1-1-1-1-1-1-1-0-0-0-0-0-0-0-0-0-0-0-0-0-0-0-0-|
A-2-2-2-2-2-2-2-2-2-2-2-2-2-2-2-2-2-2-2-2-2-2-2-2-4-4-4-4-4-4-4-4-|
E-0-0-0-0-0-0-0-0-0-0-0-0-0-0-0-0-0-0-0-0-0-0-0-0-0-0-0-0-0-0-0-0-|

This all put together should sound pretty much like the actual song.
The lyrics are at the bottom

I don't mind people copying this and pasting this on forums and stuff, but
please be nice and leave my name in the post.
I wont get mad if you don't, I'd just be disapointed...

The name I go by is Cradlecry or Hagrid.

Oh and hey got anything to add to this tab feel free to E-mail me at
cradlecry@gmail.com or just change/add it yourself.

What if the world was made of glazed donuts? You would be like,
"Man, that's fuckin' sweet, I can't believe the world is made of donuts."
What if your hands were made of Hot Pockets?
You would be the first one to be eaten in survival situations.

What if your thumb roared like a dinosaur? What if you peed out of your nose?
What if your face was shaped like Mexico, or trapezoids, or Texas and Hawaii?
What if the world was made of other worlds combined into a world just like the world you 
with?
What if another world then ate the world made out of donuts,
making all the donut people pissed?

What if your face was made of bumblebees? You would be like,
"Dude, this really sucks. I do not want a face made out of bumblebees."
What if your dad was made of rainbows?
You would be like, "OMG that's lame. I want a dad made out of ninja robots."

What if your poo was made of applesauce?
What if a hot dog was your tongue?
What if your mouth was filled with broken glass, and fire ants, and creamy jambalaya?
What if you tried to build a spaceship that shoots crocodiles at everyone you hate?
And what if those crocodiles could shoot heat-seeking killer bees, ensuring that there 
be no escape?

What if your room was filled with lots and lots of puppy dogs?
You would be like, "Awww, look at the puppy dog. Aww, c'mere. C'mere! Whatcha doing 
guy? Whatcha doing? Ooh whatcha wooky wooky.
Look at the puppy dog. The puppy dog... puppy doggies!"
Where do the squirrels go during hurricanes?
What if your butt was on your chest?
What if guitars could squirt out sour cream, and nacho cheese, and pure sulphuric acid?

What if the world was made of...

lyrics posted by alex at http://tighttoynight.blogspot.com
Related for We Ran Out Of Cd Space tab