Song name
# A B C D E F G H I J K L M N O P Q R S T U V W X Y Z

Psychostick - 1 Radio Single tab

This is really really easy, yet so funny.


Clean/Distorted Intro 

E|--4---7---0---2--------------|
B|--4---7---0---2--------------|
G|--4---7---0---2--------------|
D|--6---9---2---4--------------|
A|--6---9---2---4--------------|
E|--4---7---0---2--------------|


Intro Part Two (Breakdown thingy?)

E|------44444---44444-----77777-----77777---|
B|------44444---44444-----77777-----77777---|
G|------------------------------------------|
D|--6-6-------6-6-----9-9-------9-9---------|
A|--6-6-------6-6-----9-9-------9-9---------|
E|--4-4-------4-4-----7-7-------7-7---------|




Freaking Catchy Chorus


E|--4---7---0---2--------------|
B|--4---7---0---2--------------|
G|--4---7---0---2--------------|
D|--6---9---2---4--------------|
A|--6---9---2---4--------------|
E|--4---7---0---2--------------|


Repeat Verse and Chorus

After Second Chorus:


     
E|--4---7---0---2--------------|
B|--4---7---0---2--------------|
G|--4---7---0---2--------------|
D|--6---9---2---4--------------|
A|--6---9---2---4--------------|
E|--4---7---0---2--------------|
    X   X   X   X

Same four chords, just palm muted and in a different rhythm.


Breakdown:




E|-------------------------------------|
B|-------------------------------------|
G|-------------------------------------|
D|--66-66-66----6/9--------------------|
A|--66-66-66----6/9--------------------|
E|--44-44-44----4/7--------------------|




Pretty Bridge With No Distortion:

E|--4---7---0---2--------------|
B|--4---7---0---2--------------|
G|--4---7---0---2--------------|
D|--6---9---2---4--------------|
A|--6---9---2---4--------------|
E|--4---7---0---2--------------|


Pickslide


Repeat Chorus Twice



Tap to rate this tab
# A B C D E F G H I J K L M N O P Q R S T U V W X Y Z