Song name
# A B C D E F G H I J K L M N O P Q R S T U V W X Y Z

Psychostick - Too Many Food tab

-------------------------------------------------------------------------------
			     To Many Food - Psychostick
-------------------------------------------------------------------------------
Tabbed by: Gingernutsjonny

Tuning: Drop D (D-A-D-G-B-e)

Finger picking.

    pm    pm   pm    pm         pm                 pm           X3
E|--------------------------||------5---------------------------||
B|-----5-----5-----5-----5--||------5--5-5--4/5--5-----5--------||
G|-----5-----5-----5-----5--||*-----5----5-------5-----5-------*||
D|--------------------------||*--------------------------------*||
A|--------------------------||----------------------------------||
D|--0-----0-----0-----0-----||---0------------------0-----------||


  PM                              PM                              X3
E|-----5-----------------------|------5---------------------------||
B|-----5--5-5--4/5-------------|------5--5-5--4/5--5-----5--------||
G|-----5----5--------Pause-----|*-----5----5-------5-----5-------*||
D|-----------------------------|*--------------------------------*||
A|-----------------------------|----------------------------------||
D|--0--------------------------|---0------------------0-----------||

  PM                              PM                              X2
E|-----5-----------------------|------5---------------------------||
B|-----5--5-5--4/5-------------|------5--5-5--4/5--5-----5--------||
G|-----5----5--------Pause-----|*-----5----5-------5-----5-------*||
D|-----------------------------|*--------------------------------*||
A|-----------------------------|----------------------------------||
D|--0--------------------------|---0------------------0-----------||

  PM                              PM                              X3
E|-----5-----------------------|------5---------------------------||
B|-----5--5-5--4/5-------------|------5--5-5--4/5--5-----5--------||
G|-----5----5--------Pause-----|*-----5----5-------5-----5-------*||
D|-----------------------------|*--------------------------------*||
A|-----------------------------|----------------------------------||
D|--0--------------------------|---0------------------0-----------||

   PM
E|-----5---------------|
B|-----5--5-5--4/5-----|
G|-----5----5----------|
D|---------------------|
A|---------------------|
D|--0------------------|

| /   slide up
| \   slide down
| h   hammer-on
| p   pull-off
| ~   vibrato
| +   harmonic
| pm  Palm mute
===============================================================================
Tap to rate this tab
# A B C D E F G H I J K L M N O P Q R S T U V W X Y Z