Guitaretab - guitar tabs
Song name
# A B C D E F G H I J K L M N O P Q R S T U V W X Y Z

Psychostick - 1 Radio Single tab

 acostic intro

-------------------------------------------------------------------|
10---10---10---10-10--10-10-10-10--13--13--13--13-13--13-13-13-13--|
9----9----9----9--9---9--9--9--9---12--12--12--12-12--12-12-12-12--|
7----7----7----7--7---7--7--7--7---10--10--10--10-10--10-10-10-10--|
7----7----7----7--7---7--7--7--7---10--10--10--10-10--10-10-10-10--|
7----7----7----7--7---7--7--7--7---10--10--10--10-10--10-10-10-10--|

----------------------------------------------|
6--6--6--6-6--6-6-6-6---8--8--8--8-8--8-8-8-8-|
5--5--5--5-5--5-5-5-5---7--7--7--7-7--7-7-7-7-|
3--3--3--3-3--3-3-3-3---5--5--5--5-5--5-5-5-5-|
3--3--3--3-3--3-3-3-3---5--5--5--5-5--5-5-5-5-|
3--3--3--3-3--3-3-3-3---5--5--5--5-5--5-5-5-5-|

             distoshon        *=harmonic

----------------------------------------------------------------------------|
----------------------------------------------------------------------------|
----------------------------------------------------------------------------|
7---7-7-7---7-7-7-7-7-7-7-7-7--/---3---3---3-3-3---3-3-3-3-3-3-3-3-3--/---7-|
7---7-7-7---7-7-7-7-7-7-7-7-7--/---3---3---3-3-3---3-3-3-3-3-3-3-3-3--/---7-|
7---7-7-7---7-7-7-7-7-7-7-7-7--/---3---3---3-3-3---3-3-3-3-3-3-3-3-3--/---7-|
[ Tab from: http://www.guitaretab.com/p/psychostick/196258.html ]
--------------------------------------------------------------------|
--------------------------------------------------------------------|
--------------------------------------------------------------------|
7---7-7-7---7-7-7-7-7-7-7-7-7--/---3---3--3-3-3---3-3-3-3-3-3-0-0-0-|
7---7-7-7---7-7-7-7-7-7-7-7-7--/---3---3--3-3-3---3-3-3-3-3-3-0-0-0-|
7---7-7-7---7-7-7-7-7-7-7-7-7--/---3---3--3-3-3---3-3-3-3-3-3-0-0-0-|

----------------------------------------------------------------------|
----------------------------------------------------------------------|
---------------------------------------------5-5-5-5----------5-5-5-5-|
----------------------------------------------------------------------|
7--7---5-5-5-5---7--7---5-5-5-5-------3--3-------------3--3-----------|
7--7-------------7--7-----------------3--3-------------3--3-----------|
       * * * *          * * * *              * * * *          * * * *
-----------------------------------------------------------------------------|
-----------------------------------------------------------------------------|
-----------------------------------------5-5-5-5-----------------------------|
-----------------------------------------------------------------------------|
7--7---5-5-5-5---7--7---5-5-5-5----3--3------------3--3--3--3--3--3--0--0--0-|
7--7-------------7--7--------------3--3------------3--3--3--3--3--3--0--0--0-|
       * * * *          * * * *          * * * *

its tuned in c# thats the basic intro enjoy
Related for 1 Radio Single tab
1 Radio Single chords by Psychostick