Song name
# A B C D E F G H I J K L M N O P Q R S T U V W X Y Z

Psychostick - Shower tab

E---4-4-4-4-7-7-7-7-7----------------------|
B---6-6-6-6-9-9-9-9-9----------------------|
G------------------------------------------|
D------------------------------------------| x2
A------------------------------------------|
E------------------------------------------|


E---4-4-5-4-4-5-4-4-7-7-7-7-7--------------|
B---6-6-7-6-6-7-6-6-9-9-9-9-9--------------|
G------------------------------------------|
D------------------------------------------| x2
A------------------------------------------|
E------------------------------------------|
Tap to rate this tab
 
# A B C D E F G H I J K L M N O P Q R S T U V W X Y Z