Song name
# A B C D E F G H I J K L M N O P Q R S T U V W X Y Z

Psychostick - 1 Radio Single tab

The tuning is as follows  e  -----
                          B  -----
                          G  -----
                          D  -----
                          G# -----
                          C# -----

INTRO:
    G#       B            E        F#
e ------------------------------------------|
B ------------------------------------------|
G --8-8-8-8--11-11-11-11--4-4-4-4--6-6-6-6--|  2X
D --6-6-6-6--9--9--9--9---2-2-2-2--4-4-4-4--|
G#--7-7-7-7--10-10-10-10--3-3-3-3--5-5-5-5--|
C#--7-7-7-7--10-10-10-10--3-3-3-3--5-5-5-5--|


e ----------------------|
  ----------------------|
  ----------------------|  2X
  ----------------------|
  --77777777--33333333--|
C#--77777777--33333333--|


e ---------------------------------------------|
  ---------------------------------------------|
  ---------------------------------------------|  2X
  ---------------------------------------------|
  --77-(5555)--77-(5555)--33-(3333)-33-(3333)--|
C#--77---------77---------33--------33---------|


 VERSE:

 FIRST THE BASS PLAYS G#  E  G#  E


e ---------------------------------------------|
  ---------------------------------------------|
  ---------------------------------------------|
  ---------------------------------------------|
  --33-33-33--55-55-55--33-33-33--55-55-55-----|
C#--33-33-33--55-55-55--33-33-33--55-55-55-----|
    this is where my producer...


CHORUS:
e ------------------------------------------|
  ------------------------------------------|
  --8-8-8-8--11-11-11-11--4-4-4-4--6-6-6-6--|  2X
  --6-6-6-6--9--9--9--9---2-2-2-2--4-4-4-4--|
  --7-7-7-7--10-10-10-10--3-3-3-3--5-5-5-5--|
C#--7-7-7-7--10-10-10-10--3-3-3-3--5-5-5-5--|
    this chorus is so freaking catchy...


VERSE 2: Played the same as verse 1

CHORUS:  played the same


BRIDGE:
e ---------------------------------------------|
  ---------------------------------------------|
  ---------------------------------------------|
  ---------------------------------------------|
  --3333-5555-7777-0000-0h2-3333-5555-7777-0---|
C#--3333-5555-7777-0000-0h2-3333-5555-7777-0---|
    love  everynight, love everyday.....


e ----------------------------------------------|
  ----------------------------------------------|
  ----------------------------------------------|
  ----------------------------------------------|
  --00-00-00-03--00-00-00-03-00-00-00-03-55555--|
C#--00-00-00-03--00-00-00-03-00-00-00-03-55555--|
           yeah...      rock....


e ------------------------------------------|
  ------------------------------------------|
  --8-8-8-8--11-11-11-11--4-4-4-4--6-6-6-6--|
  --6-6-6-6--9--9--9--9---2-2-2-2--4-4-4-4--|
  --7-7-7-7--10-10-10-10--3-3-3-3--5-5-5-5--|
C#--7-7-7-7--10-10-10-10--3-3-3-3--5-5-5-5--|
    this pretty bridge has no distortion...


CHORUS: repeated till end of song

Song:   #1 radio single
Artist: Psychostick
Tabbed by: Yoder (todrunktocare@hotmail.com)
   This should give a pretty good idea if somebody wants
   to build on it, i know i missed some minor details.
Tap to rate this tab
# A B C D E F G H I J K L M N O P Q R S T U V W X Y Z