Song name
# A B C D E F G H I J K L M N O P Q R S T U V W X Y Z

Psychostick - We Ran Out Of Cd Space tab

Psychostick - We Ran Out Of CD Space


     E  E  E  E  E  E  E  E     E  E  E  E  E  E  E  E     E  E  E  E  E  E  E  E
E||-----------0-----------7--|-----------8--------------|-----------0--------------|
B||--------------------------|-----------------------0--|-----------------------0--|
G||-----0-----------0--------|-----0-----------0--------|-----0-----------0--------|
D||--------7-----------7-----|--------7-----------7-----|--------7-----------7-----|
A||--7-----------7-----------|--7-----------7-----------|--5-----------5-----------|
E||--------------------------|--------------------------|--------------------------|


  E  E  E  E  E  E  E  E     E  E  E  E  E  E  E  E     E  E  E  E  E  E  E  E
--------------------------|-----------0-----------7--|-----------8--------------|
-----------0-----------0--|--------------------------|-----------------------0--|
-----0-----------0--------|-----0-----------0--------|-----0-----------0--------|
--------7-----------7-----|--------7-----------7-----|--------7-----------7-----|
--5-----------5-----------|--7-----------7-----------|--7-----------7-----------|
--------------------------|--------------------------|--------------------------|


  E  E  E  E  E  E  E  E     E  E  E  E  E  E  E  E     E  E  E  E  E  E  E  E
-----------7-----------0--|--------------------------|--------------------------|
--------------------------|-----------0-----------0--|-----------0-----------0--|
-----0-----------0--------|-----0-----------0--------|-----0-----------0--------|
--------7-----------7-----|--------7-----------7-----|--------7-----------7-----|
--5-----------5-----------|--5-----------5-----------|--7-----------7-----------|
--------------------------|--------------------------|--------------------------|


  E  E  E  E  E  E  E  E     E  E  E  E  E  E  E  E     E  E  E  E  E  E  E  E
--------------------------|--------------------------|--------------------------|
-----------0-----------0--|-----------0-----------0--|-----------0-----------0--|
-----0-----------0--------|-----0-----------0--------|-----0-----------0--------|
--------7-----------7-----|--------7-----------7-----|--------7-----------7-----|
--7-----------7-----------|--5-----------5-----------|--5-----------5-----------|
--------------------------|--------------------------|--------------------------|


  E  E  E  E  E  E  E  E     E  E  E  E  E  E  E  E     E  E  E  E  E  E  E  E
--------------------------|--------------------------|--------------------------|
-----------0-----------0--|-----------0-----------0--|-----------0-----------0--|
-----0-----------0--------|-----0-----------0--------|-----0-----------0--------|
--------7-----------7-----|--------7-----------7-----|--------7-----------7-----|
--------------------------|--------------------------|--------------------------|
--8-----------8-----------|--8-----------8-----------|--5-----------5-----------|


  E  E  E  E  E  E  E  E     E  E  E  E  E  E  E  E     E  E  E  E  E  E  E  E
--------------------------|--------------------------|--------------------------|
-----------0-----------0--|-----------0-----------0--|-----------0-----------0--|
-----0-----------0--------|-----0-----------0--------|-----0-----------0--------|
--------7-----------7-----|--------7-----------7-----|--------7-----------7-----|
--------------5-----------|--7-----------7-----------|--7-----------7-----------|
--8-----------------------|--------------------------|--------------------------|


  E  E  E  E  E  E  E  E     E  E  E  E  E  E  E  E     E  E  E  E  E  E  E  E
--------------------------|--------------------------|--------------------------|
-----------0-----------0--|-----------0-----------0--|-----------0-----------0--|
-----0-----------0--------|-----0-----------0--------|-----0-----------0--------|
--------7-----------7-----|--------7-----------7-----|--------7-----------7-----|
--5-----------5-----------|--5-----------5-----------|--------------------------|
--------------------------|--------------------------|--8-----------8-----------|


  E  E  E  E  E  E  E  E     E  E  E  E  E  E  E  E     E  E  E  E  E  E  E  E
--------------------------|--------------------------|--------------------------|
-----------0-----------0--|-----------0-----------0--|-----------0-----------0--|
-----0-----------0--------|-----0-----------0--------|-----0-----------0--------|
--------7-----------7-----|--------7-----------7-----|--------7-----------7-----|
--------------------------|--------------------------|--------------5-----------|
--8-----------8-----------|--5-----------5-----------|--8-----------------------|


  E  E  E  E  E  E  E  E     E  E  E  E  E  E  E  E     E  E  E  E  E  E  E  E
--------------------------|--------------------------|--------------------------|
-----------0-----------0--|-----------0-----------0--|-----------0-----------0--|
-----5-----------5--------|-----5-----------5--------|-----0-----------0--------|
--------5-----------5-----|--------5-----------5-----|--------2-----------1-----|
--3-----------3-----------|--0-----------0-----------|--------------------------|
--------------------------|--------------------------|--0-----------0-----------|


  E  E  E  E  E  E  E  E     E  E  E  E  E  E  E  E     E  E  E  E  E  E  E  E
--------------------------|--------------------------|--------------------------|
-----------0--------------|-----------0-----------0--|-----------0-----------0--|
-----0-----------0-----0--|-----5-----------5--------|-----5-----------5--------|
--------0-----------------|--------5-----------5-----|--------5-----------5-----|
--------------------4-----|--3-----------3-----------|--0-----------0-----------|
--0-----------0-----------|--------------------------|--------------------------|


  E  E  E  E  E  E  E  E     E  E  E  E  E  E  E  E     E  E  E  E  E  E  E  E
--------------------------|--------------------------|--------------------------|
-----------0-----------0--|-----------0--------------|-----------0-----------0--|
-----0-----------0--------|-----0-----------0-----0--|-----5-----------5--------|
--------2-----------1-----|--------0-----------------|--------5-----------5-----|
--------------------------|--------------------4-----|--3-----------3-----------|
--0-----------0-----------|--0-----------0-----------|--------------------------|


  E  E  E  E  E  E  E  E     E  E  E  E  E  E  E  E     E  E  E  E  E  E  E  E
--------------------------|--------------------------|--------------------------|
-----------0-----------0--|-----------0-----------0--|-----------0--------------|
-----5-----------5--------|-----0-----------0--------|-----0-----------7-----7--|
--------5-----------5-----|--------2-----------2-----|--------7-----------7-----|
--0-----------0-----------|--------------------------|--5-----------5-----------|
--------------------------|--0-----------0-----------|--------------------------|


  E  E  E  E  E  E  E  E     E  E  E  E  E  E  E  E     E  E  E  E  E  E  E  E
--------------------------|--------------------------|--------------------------|
-----------2-----------3--|-----------2-----------2--|-----------2-----------3--|
-----2-----------2--------|-----2-----------2--------|-----2-----------2--------|
--------2-----------2-----|--------2-----------2-----|--------2-----------2-----|
--0-----------0-----------|--0-----------0-----------|--0-----------0-----------|
--------------------------|--------------------------|--------------------------|


  E  E  E  E  E  E  E  E
--------------------------||
-----------2-----------2--||
-----2-----------2--------||
--------2-----------2-----||
--0-----------0-----------||
--------------------------||

And then here are the chords for the chorus:

G Bm Dm Am Em Bm Am

And that's pretty much all you need to figure out the song. Just listen and piece 
together the different parts. There are only a few variations but they're very easy to figure 
out once you know the song. :)
Tap to rate this tab
# A B C D E F G H I J K L M N O P Q R S T U V W X Y Z