Song name
# A B C D E F G H I J K L M N O P Q R S T U V W X Y Z

Psychostick - Beer Song tab

----------------------------------------------------------------------------
			     BEER (SONG) – Mustard Plug
----------------------------------------------------------------------------
Tabbed by:donthavealife??
Email:b777vale@yahoo.com


Tuning:standard
Intro: (figure out the strumming)

e|-------------------------------------------------------------------------|
B|-------------------------------------------------------------------------|
G|-----------10--------------8---------------------------------------------|
D|---8-------10------5-------8---------------------------------------------|
A|---8-------8-------5-------6---------------------------------------------|
E|---6---------------3-----------------------------------------------------|

Note: when strumming the last intro chord, do this little chord once as a transition to Bb5.
e|-------------------|
B|-------------------|
G|----8--------------|
D|----8--------------|
A|----5--------------|
E|-------------------|

Then the verse chords 

	Bb	F	Gm	Eb
e|------1------5-------3-------6-------------------------------------------|
B|------3------6-------3-------8-------------------------------------------|
G|------3------5-------3-------8-------------------------------------------|
D|------3--------------5-------8-------------------------------------------|
A|-------------------------------------------------------------------------|
E|---------------------------------------------------------------------------|

Then the prechorus
e|-------------------------------------------------------------------------|
B|-------------------------------------------------------------------------|
G|--------------8---------------8-10---------------------------------------|
D|------10------8-------10------8-10---------------------------------------|
A|------10------6-------10------6-8----------------------------------------|
E|------8---------------8--------------------------------------------------|

Chorus is pretty much same as verse
e|------6------8-------3------6--------------------------------------------|
B|------6------10------3------8--------------------------------------------|
G|------7------10------3------8--------------------------------------------|
D|------8------10------5------8--------------------------------------------|
A|------8------8-------5------6--------------------------------------------|
E|------6--------------3-----------------------------------------------------|

The bridge is really the only different part

        Bb     F      C       Eb  
e|------6------8------8-------6--------------------------------------------|
B|------6------10-----8-------8--------------------------------------------|
G|------7------10-----9-------8--------------------------------------------|
D|------8------10-----10------8--------------------------------------------|
A|------8------8------10------6--------------------------------------------|
E|------6-------------8----------------------------------------------------|
(if its not C then its Cm, but im pretty sure its major)

And… I think that’s it. Fun song, easy to play, easy to figure out, enjoy. yeah.

| /  slide up
| \  slide down
| h  hammer-on
| p  pull-off
| ~  vibrato
| +  harmonic
| x  Mute note
============================================================================

Tap to rate this tab
# A B C D E F G H I J K L M N O P Q R S T U V W X Y Z