Song name
# A B C D E F G H I J K L M N O P Q R S T U V W X Y Z

Psychostick - Hokey Fuckin Pokey tab

Help us improve GuitareTab! Take a short survey!
PSYCOSTICK

HOKEY FUCKIN POKEY

tabbed by Chad Martin

Drop D

Intro
/---------------------------------------------------------------------------|
/---------------------------------------------------------------------------|
/---------------------------------------------------------------------------|
/---------------------------------------------------------------------------|
/-0h2-2-0h2-2-0h3-3-0h5-5---------------------------------------------------|
/-0h2-2-0h2-2-0h3-3-0h5-5---------------------------------------------------|

Pre Verse
/---------------------------------------------------------------------------|
/---------------------------------------------------------------------------|
/---------------------------------------------------------------------------|
/-2~---2~---2~-2~-2~-2~-----------------------------------------------------|
/-0~---0~---0~-0~-0~-0~-----------------------------------------------------|
/---------------------------------------------------------------------------|

Verse
/---------------------------------------------------------------------------|
/---------------------------------------------------------------------------|
/---------------------------------------------------------------------------|
/---------------------------------------------------------------------------|
/-0-0-00-00-00-000----------------------------------------------------------|
/-0-0-00-00-00-000----------------------------------------------------------|

Chorus
/---------------------------------------------------------------------------|
/---------------------------------------------------------------------------|
/---------------------------------------------------------------------------|
/---------------------------------------------------------------------------|
/---------------------------------------------------------------------------|
/-0h2-2-0h2-2-0h3-3-0h5-5-0h2-0h2-0h2---------------------------------------|

Bridge
/---------------------------------------------------------------------------|
/---------------------------------------------------------------------------|
/---------------------------------------------------------------------------|
/-0h4-4-0h4-4-0h4-4-0h4-4-0h4-4-0h4-4-0h4-4-0h4-4---------------------------|
/-0h2-2-0h2-2-0h2-2-0h2-2-0h2-2-0h2-2-0h2-2-0h2-2---------------------------|
/---------------------------------------------------------------------------|

/---------------------------------------------------------------------------|
/---------------------------------------------------------------------------|
/---------------------------------------------------------------------------|
/---------------------------------------------------------------------------|
/---------------------------------------------------------------------------|
/-0h2-2-0h2-2-0h2-2-0h2-2-0h2-2-0h2-2-0h2-2-0h2-2-3-------------------------|

Solo
<++++++++++++++++++++TREMOLO+PICKING+++++++++++++++++++++++++++++++++++++++>

/-12b-12b-15h14h12h15h14h12h15h14h12h15h14h12-17b-12b-19bp17h19bp17h-21b-17--|b
/----------------------------------------------------------------------------|
/----------------------------------------------------------------------------|
/----------------------------------------------------------------------------|
/----------------------------------------------------------------------------|
/----------------------------------------------------------------------------|

/-21b-----------------------------------------------------------------------|
/---------------------------------------------------------------------------|
/---------------------------------------------------------------------------|
/---------------------------------------------------------------------------|
/---------------------------------------------------------------------------|
/---------------------------------------------------------------------------|
Related for Hokey Fuckin Pokey tab