Guitaretab - guitar tabs
Song name
# A B C D E F G H I J K L M N O P Q R S T U V W X Y Z

Psychostick - Abcdeath tab

This is a really easy song
but fun to play

|--------------------------------------------------------|
|--------------------------------------------------------|
|--------------------------------------------------------|
|--------------------------------------------------------|x3
|1-0-0-4-3-3-1-0-0-4-3-3-1-0-0-4-3-3-8-8-8-8-11-11-11-11-|
|1-0-0-4-3-3-1-0-0-4-3-3-1-0-0-4-3-3-8-8-8-8-11-11-11-11-|

|----------------------------------------------|
|----------------------------------------------|
|----------------------------------------------|
|----------------------------------------------|
|1-0-0-4-3-3-1-0-0-4-3-3-1-0-0-4-3-3-8--8--11--|
|1-0-0-4-3-3-1-0-0-4-3-3-1-0-0-4-3-3-8--8--11--|
[ Tab from: http://www.guitaretab.com/p/psychostick/86189.html ]
|----------------------------------------------------------|
|----------------------------------------------------------|
|----------------------------------------------------------|
|----------------------------------------------------------|
|0-0-0--0-0-0--0-0-0-0-0-0-0--0-0-0--0-0-0--0-0-0-0-0-0-4b-|
|0-0-0--0-0-0--0-0-0-0-0-0-0--0-0-0--0-0-0--0-0-0-0-0-0----|
 . . .  . . .  . . . . . . .  . . .  . . .  . . . . . .

|----------------------------------------------|
|----------------------------------------------|
|----------------------------------------------|
|----------------------------------------------|
|0-0-0--0-0-0--0-0-0-0-0-0-0--0-0-0--0-0-0--0--|
|0-0-0--0-0-0--0-0-0-0-0-0-0--0-0-0--0-0-0--0--|
 . . .  . . .  . . . . . . .  . . .  . . .

|--------------------------------------------------------|
|--------------------------------------------------------|
|--------------------------------------------------------|
|--------------------------------------------------------|
|1-0-0-4-3-3-1-0-0-4-3-3-1-0-0-4-3-3-8-8-8-8-11-11-11-11-|
|1-0-0-4-3-3-1-0-0-4-3-3-1-0-0-4-3-3-8-8-8-8-11-11-11-11-|

|----------------------------------------------|
|----------------------------------------------|
|----------------------------------------------|
|----------------------------------------------|
|1-0-0-4-3-3-1-0-0-4-3-3-1-0-0-4-3-3-8--8--11--|
|1-0-0-4-3-3-1-0-0-4-3-3-1-0-0-4-3-3-8--8--11--|
Related for Abcdeath tab