Guitaretab - guitar tabs
Song name
# A B C D E F G H I J K L M N O P Q R S T U V W X Y Z

Psychostick - Two Ton Paperweight tab

PSYCHOSTICK

TWO TON PAPERWEIGHT

tabbed by Chad Martin

Drop D


Verse
/---------------------------------------------------------------------------|
/---------------------------------------------------------------------------|
/---------------------------------------------------------------------------|
/---------------------------------------------------------------------------|
/---------------------------------------------------------------------------|
/-3-1-0-000-0-0-000-0-0-000-0-0-000-3-1-0-----------------------------------|

Pre Chorus
/---------------------------------------------------------------------------|
/---------------------------------------------------------------------------|
/---------------------------------------------------------------------------|
/---------------------------------------------------------------------------|
/---------------------------------------------------------------------------|
/-00000-1h0-00-3p2-00000-1h0-00-3p2-00-1-3-1--------------------------------|

Chorus
/---------------------------------------------------------------------------|
/---------------------------------------------------------------------------|
/---------------------------------------------------------------------------|
/-6-6-6-6-4-4-4-9-2-------4-4-4-3-------------------------------------------|
/-4-4-4-4-2-2-2-7-0-6-4-2-2-2-2-0-------------------------------------------|
/---------------------------------------------------------------------------|
[ Tab from: http://www.guitaretab.com/p/psychostick/86190.html ]
Pre Bridge
/---------------------------------------------------------------------------|
/---------------------------------------------------------------------------|
/---------------------------------------------------------------------------|
/---------------------------------------------------------------------------|
/---------4--------4--------------------------------------------------------|
/-0-3-2-0---0-3-2-0---------------------------------------------------------|

Bridge
/---------------------------------------------------------------------------|
/---------------------------------------------------------------------------|
/---------------------------------------------------------------------------|
/---------------------------------------------------------------------------|
/--3-3/4-3-3/4-7-4-3-3-3h4-3-3h4--------------------------------------------|
/-0-0---0-0---------0-0---0-0---3-2-0---------------------------------------|

Bridge Riff 2
/---------------------------------------------------------------------------|
/---------------------------------------------------------------------------|
/---------------------------------------------------------------------------|
/-----------------------------5-5h6-5-5h6------------55-55------------------|
/--3-3h4-3-3h4-3p2------------3-3h4-3-3h4-3p2--------33-33-00-000-00-00-----|
/-0-0---0-0----3p2-----------0-0---0-0----3p2--00-00-------00-000-00-00-----|

Outro Breakdown
/---------------------------------------------------------------------------|
/---------------------------------------------------------------------------|
/---------------------------------------------------------------------------|
/-----------------------------------------------5---------------------------|
/-0-00-0-00-0-00-0-00-0-00-0-00-0-00-0-00-------3--4--1---------------------|
/-0-00-0-00-0-00-0-00-0-00-0-00-0-00-0-00----------4--1---------------------|
Related for Two Ton Paperweight tab