Guitaretab - guitar tabs
Song name
# A B C D E F G H I J K L M N O P Q R S T U V W X Y Z

Psychostick - Scrotal Torment tab

-----------------------------------------------------------------
Scrotal Torment - Psychostick
-----------------------------------------------------------------
Tabbed by: Dan
AIM: ToxicityPrisonCM
Tuning: Drop Db (Db, Ab, Db, Gb, Bb, Eb)

EDIT Aug 02 07- Fixed some small errors.

Intro

eb|---------------------------------------------------------------|
Bb|---------------------------------------------------------------|
Gb|---------------------------------------------------------------|
Db|-----------------------------------------------0-0-0-----------|
Ab|-----------------------------------------------0-0-0-----------|
Db|-000000000h3--0000000000h3--000000000h3--0000000-0-0-----------| (x2)
    ********     *********     ********     ******* * *
The struming pattern may be off, but theres the notes

eb|---------------------------------------------------------------|
Bb|---------------------------------------------------------------|
Gb|---------------------------------------------------------------|
Db|-----------------------------------------------6-2-1-----------|
Ab|-----------------------------------------------6-2-1-----------|
Db|-000000000h3--0000000000h3--000000000h3--0000006-2-1-----------|
    ********     *********     ********     ******* * *

eb|---------------------------------------------------------------|
Bb|---------------------------------------------------------------|
Gb|---------------------------------------------------------------|
Db|---------------------------------------------------------------|
Ab|---------------------------------------------------------------|
Db|-000000000h3--0000000000h3--000000000h3--0000006-2-1-----------|
    ********     *********     ********     ******
eb|---------------------------------------------------------------|
Bb|---------------------------------------------------------------|
Gb|---------------------------------------------------------------|
Db|-110-110-110-0h3--110-110-6-2-1--------------------------------|
Ab|-110-110-110-0h3--110-110-6-2-1--------------------------------|
Db|-110-110-110-0h3--110-110-6-2-1--------------------------------|
    **  **  **       **  **

The verse...is pretty much just all spastic bass...Listening close will
reveal some dead strums
eb|----------|
Bb|----------|
Gb|-x-xx-x---|
Db|-x-xx-x---|
Ab|-x-xx-x---|
Db|----------|

The pre-chorus
eb|---------------------------------------------------------------|
Bb|---------------------------------------------------------------|
Gb|---------------------------------------------------------------|
Db|-6-0-0----6-0-0----6-0-0------------6-0-0----------------------|
Ab|-6-0-0----6-0-0----6-0-0------------6-0-0----------------------|
Db|-6-0-0----6-0-0----6-0-0-0-00000000-6-0-0-0-0000000------------|
I think i have the number of open strums wrong, but i dont think
it takes to much to figure it out
[ Tab from: http://www.guitaretab.com/p/psychostick/89316.html ]
eb|--------------------------------------------------|
Bb|--------------------------------------------------|
Gb|--------------------------------------------------|
Db|-1p00--3p00--4p00--3p00--1p00-3p00-4p00--x-x-x-x--|
Ab|-1p00--3p00--4p00--3p00--1p00-3p00-4p00--x-x-x-x--|
Db|-1p00--3p00--4p00--3p00--1p00-3p00-4p00--x-x-x-x--|

Post Chorus
eb|---------------------------------------------------------------|
Bb|---------------------------------------------------------------|
Gb|---------------------------------------------------------------|
Db|---------------------------------------------------------------|
Ab|---------------------------------------------------------------|
Db|-2p0-2p0--2p0-2p0--2p0-3p0-2p0-2p0--2p0-2p0--2p0-1p0-----------|

Intermission
eb|---------------------------------------------------------------|
Bb|---------------------------------------------------------------|
Gb|---------------------------------------------------------------|
Db|-2p0-2p0--2p0-2p0--2p0-3p0-2p0-2p0--2p0-2p0--2p0-1p0-----------|
Ab|-2p0-2p0--2p0-2p0--2p0-3p0-2p0-2p0--2p0-2p0--2p0-1p0-----------|
Db|-2p0-2p0--2p0-2p0--2p0-3p0-2p0-2p0--2p0-2p0--2p0-1p0-----------|

eb|---------------------------------------------------------------|
Bb|---------------------------------------------------------------|
Gb|---------------------------------------------------------------|
Db|-2p0-2p0--2p0-2p0--2p0-3p0-2p0-2p0--2p0-2p0--2p0-1~~~----------|
Ab|-2p0-2p0--2p0-2p0--2p0-3p0-2p0-2p0--2p0-2p0--2p0-1~~~----------|
Db|-2p0-2p0--2p0-2p0--2p0-3p0-2p0-2p0--2p0-2p0--2p0-1~~~----------|

After that just play the same thing slower


eb|--------------------|
Bb|--------------------|
Gb|--------------------|
Db|--------------------|
Ab|--------------------|
Db|-0-0-0000-000-0-0h6-| (x4)
    * * **** *** * *

eb|--------------------|
Bb|--------------------|
Gb|--------------------|
Db|-0-0-0000-000-0-0h6-|
Ab|-0-0-0000-000-0-0h6-|
Db|-0-0-0000-000-0-0h6-| (x3)
    * * **** *** * 

eb|----------------------------|
Bb|----------------------------|
Gb|----------------------------|
Db|-0-0-0000-000-0-0h6-3~~~~---|
Ab|-0-0-0000-000-0-0h6-3~~~~---|
Db|-0-0-0000-000-0-0h6-3~~~~---| (x3)
    * * **** *** * 

To end it all

eb|-------------------------------------------------|
Bb|-------------------------------------------------|
Gb|----------------------------------------------5--|
Db|-000000000h3--0000000000h3--000000000h3--00---5--|
Ab|-000000000h3--0000000000h3--000000000h3--00---3--|
Db|-000000000h3--0000000000h3--000000000h3--00------|
    ********     *********     ********     **   
Order
Intro
Verse
Pre-Chorus
Chorus
Post Chorus
Verse
Pre-Chorus
Post Chorus
Intermission
Ending

Theres some areas i KNOW i screwed up as far as timing and strum patterns
But i assure you ALL the notes are there.
Just play along to the song, you'll get it.



| h  hammer-on
| p  pull-off
| * palm mute
| x dead note
Related for Scrotal Torment tab