Song name
# A B C D E F G H I J K L M N O P Q R S T U V W X Y Z

Psychostick - Pluhcom tab

Song: PLUH
Band: Psychostick
Album: We Could'nt Think Of A TItle
Tuning:C# G# C# F# A# D#  (Drop-D, down 1/2 step)
Transcribed By: Forrest R. E.

Used Tab Symbols
_____________________
 h  = Hammer On
 p  = Pull Off
 /  = Slide Up
 *  = Muted Note
 P.H.= Pinch Harmonic
  ~  = Let Ring
_____________________

This is my first full transcription so if i messed something up
please tell me at myspace.com/blindtree. I never check my e-mail.

Josh uses an Ibanez GAX70 (Nicknamed Spanky) with a Dimebucker pickup In the brige 
into a Randall Warhead to what looks
like Crate cabs. I'm not sure if he uses distortion pedels or the head is dirty.  Just 
case you wanted to know


(Pickslide/tap starting on the 22nd fret going down to the
third fret and then sliding back down towards the bridge)

                 Here We Go
d#|-------|------------------------------------------------------|
A#|-------|------------------------------------------------------|
F#|-------|------------------------------------------------------|
C#|-0-----|--0-6-5-3-0----10-8-6-5-3-5----0-6-5-3-0--2-3-0-6-6-6-| X2
G#|-0-x26-|--0-6-5-3-0----10-8-6-5-3-5----0-6-5-3-0--2-3-0-6-6-6-|
C#|-0-----|--0-6-5-3-0----10-8-6-5-3-5----0-6-5-3-0--2-3-0-6-6-6-|
    *

d#|--------------------------------------------------------------|
A#|--------------------------------------------------------------|
F#|--------------------------------------------------------------|
C#|-0~-----------------------------------------------------------|
G#|-0~-----------------------------------------------------------|
C#|-0~-----------------------------------------------------------|

d#|--------------------------------------------------------------|
A#|--------------------------------------------------------------|
F#|--------------------------------------------------------------|
C#|--------------------------X A lot-----------------------------|
G#|-4-5-5-5-5-5-5-4-5-4-4-5---------------------------------4 & 5|
C#|----------------------------------Or 11 & 12 Instead of ------|
    * * * * * * * * * * * *

...And i said Pluh
d#|--------------------------------------------------------------|
A#|--------------------------------------------------------------|
F#|--------------------------------------------------------------|
C#|---0-6-5-3-0----10-8-6-5-3-5----0-6-5-3-0--2-3-0-6-6-6--------| X2
G#|---0-6-5-3-0----10-8-6-5-3-5----0-6-5-3-0--2-3-0-6-6-6--------|
C#|---0-6-5-3-0----10-8-6-5-3-5----0-6-5-3-0--2-3-0-6-6-6--------|


d#|--------------------------------------------------------------|
A#|--------------------------------------------------------------|
F#|--------------------------------------------------------------|
C#|----------------------------X A lot---------------------------|
G#|-4-5-5-5-5-5-5-4-5-4-4-5--------------------------------------|
C#|--------------------------------------------------------------|
    * * * * * * * * * * * *

d#|--------------------------------------------------------------|
A#|--------------------------------------------------------------|
F#|--------------------------------------------------------------|
C#|-0~-----------------------------------------------------------|
G#|-0~-----------------------------------------------------------|
C#|-0~-----------------------------------------------------------|

...Pluh
d#|-------------------------------------------------------|------|
A#|-------------------------------------------------------|------|
F#|-------------------------------------------------------|------|
C#|---0-6-5-3-0----10-8-6-5-3-5----0-6-5-3-0--2-3-0-6-6-6-|-X2-0~|
G#|---0-6-5-3-0----10-8-6-5-3-5----0-6-5-3-0--2-3-0-6-6-6-|----0~|
C#|---0-6-5-3-0----10-8-6-5-3-5----0-6-5-3-0--2-3-0-6-6-6-|----0~|

Drum Solo

d#|--------------------------------------------------------------|
A#|--------------------------------------------------------------|
F#|--------------------------------------------------------------|
C#|---------------------------------X A Lot----------------------|
G#|--------------------------------------------------------------|
C#|-0-0-3-3-5-5-0-0-6-6-5-5-3-3-5-5------------------------------|
    * * * * * * * * * * * * * * * *

 DJ Scratching

 Whistling

 Slap Bass Lick


d#|-----------------------------|
A#|-----------------------------|
F#|-----------------------------|
C#|-3-5-0-5/6--3-5-0-5/6--3-5---|
G#|-3-5-0-5/6--3-5-0-5/6--3-5-X2|
C#|-3-5-0-5/6--3-5-0-5/6--3-5---|

d#|-----------------------------|---------------------------------|
A#|-----------------------------|---------------------------------|
F#|-----------------------------|---------------------------------|
C#|-3-5-0-5/6--3-5-0-5/6--3-5---|--3-5-0-5/6--3-5-0-5-------3-5---| X2
G#|-3-5-0-5/6--3-5-0-5/6--3-5-X2|--3-5-0-5/6--3-5-0-5-------3-5---|
C#|-3-5-0-5/6--3-5-0-5/6--3-5---|--3-5-0-5/6--3-5-0-5-6P.H.-3-5---|

This Is Heavy
d#|---------------------------------------------------------------|
A#|---------------------------------------------------------------|
F#|---------------------------------------------------------------|
C#|-0-------------------------------------------------------------|
G#|-0-X A Lot-----------------------------------------------------|
C#|-0-------------------------------------------------------------|
    *

d#|--------------------------------------------------------------|
A#|--------------------------------------------------------------|
F#|--------------------------------------------------------------|
C#|-0~-----------------------------------------------------------|
G#|-0~-----------------------------------------------------------|
C#|-0~-----------------------------------------------------------|

d#|--------------------------------------------------------------|
A#|--------------------------------------------------------------|
F#|--------------------------------------------------------------|
C#|----------------------------X A lot---------------------------|
G#|-4-5-5-5-5-5-5-4-5-4-4-5--------------------------------------|
C#|--------------------------------------------------------------|
    * * * * * * * * * * * *

d#|--------------------------------------------------------------|
A#|--------------------------------------------------------------|
F#|--------------------------------------------------------------|
C#|---0-6-5-3-0----10-8-6-5-3-5----0-6-5-3-0--2-3-0-6-6-6--------| X2
G#|---0-6-5-3-0----10-8-6-5-3-5----0-6-5-3-0--2-3-0-6-6-6--------|
C#|---0-6-5-3-0----10-8-6-5-3-5----0-6-5-3-0--2-3-0-6-6-6--------|

d#|--------------------------------------------------------------|
A#|--------------------------------------------------------------|
F#|--------------------------------------------------------------|
C#|--------------------------------------------------------------|
G#|--------------------------------------------------------------|
C#|-0-0-0-0-0-0-0-0-6-6-6-5-5-5-3-3-3----------------------------|
    * * * * * * * * * * * * * * * * *

d#|--------------------------------------------------------------|
A#|--------------------------------------------------------------|
F#|--------------------------------------------------------------|
C#|-0-0-0-0-6-6-5-5-3-3------------------------------------------|
G#|-0-0-0-0-6-6-5-5-3-3-X A Lot----------------------------------|
C#|-0-0-0-0-6-6-5-5-3-3------------------------------------------|

d#|--------------------------------------------------------------|
A#|--------------------------------------------------------------|
F#|--------------------------------------------------------------|
C#|--------------------------------------------------------------|
G#|--------------------------------------------------------------|
C#|-0-6h-5h-3h-0p--(hammer on each note lighter and lighter)-----|

PSYCHOSTICK - THEY MAKE THINGS NOT SUCK

Compiled with TabPlayer :: http://www.simoneperandini.com/tabplayer.htm
Tap to rate this tab
# A B C D E F G H I J K L M N O P Q R S T U V W X Y Z