Song name
# A B C D E F G H I J K L M N O P Q R S T U V W X Y Z

Psycostick - Prozac Milkshake tab

into/verse

/---------------------------------------------------------------------------|
/----4---4---4h5---4---4---4h5----------------------------------------------|
/--6---6---6-----6---6---6--------------------------------------------------|
/---------------------------------------------------------------------------|
/---------------------------------------------------------------------------|
/---------------------------------------------------------------------------|



into
/---------------------------------------------------------------------------|
/---------------------------------------------------------------------------|
/------------------6-----8--9---11---9(9)--6----8--9---11-9h11p9------------|
/---------------------------------------------------------------------------|
/---------------------------------------------------------------------------|
/---------------------------------------------------------------------------|

chorus
      c#    D#     E#
/---------------------------------------------------------------------------|
/---------------------------------------------------------------------------|
/-----6-----8------9--------------------------------------------------------|
/-----6-----8------9--------------------------------------------------------|
/-----4-----6------7--------------------------------------------------------|
/---------------------------------------------------------------------------|
Tap to rate this tab
# A B C D E F G H I J K L M N O P Q R S T U V W X Y Z