Song name
# A B C D E F G H I J K L M N O P Q R S T U V W X Y Z

Psyopus - Duct Tape Smile tab

INTRO

E|---------------------------------|
B|------------4p3-t12/24-----------|
G|-1h2-t12/24----------------------|
D|---------------------------------| (x2)
A|---------------------------------|
E|---------------------------t12\--|

E|----------------t15p0t15p0--t16p0t16p0--t23p0t23p0------|
B|------------4p3-----------------------------------------|
G|-1h2-t12/24---------------------------------------------|
D|--------------------------------------------------------|
A|--------------------------------------------------------|
E|--------------------------------------------------------|

E|----------------------------------------------------------------|
B|-3-4-5-4/11-11-4-4-3-4-3-4/12-12-4-4-3-4-5-4/11-11-12b-12-12-12-|
G|-1-2-3-2/9--9--2-2-1-2-1-2/10-10-2-2-1-2-3-2/9--9--10b-10-10-10-|
D|----------------------------------------------------------------|
A|----------------------------------------------------------------|
E|----------------------------------------------------------------|

E|----------------------------------------------|
B|----------------------------------------------|
G|----------------------------------------------|
D|----------------------------------------------|
A|----------------------------------------------|
E|-5h6p5h6p5h6p5h6p5h6p5h6p5h6p5h6p5h6p5h6p5h6p-|
  lower pitch all the way down with whammy bar

E|----------------------------------------------|
B|----------------------------------------------|
G|----------------------------------------------|
D|----------------------------------------------|
A|-2-2------------------------------------------|
E|-0-0------------------------------------------|
 PM. .
   Smile for the camera!


E|-15p12t15/24p15p12t15/24p15p12t15/24p15p12t15/24p15p12t15/24p15p12t15/24p15p12t15/24p15p12t15/24-|
B|-------------------------------------------------------------------------------------------------|
G|-------------------------------------------------------------------------------------------------|
D|-------------------------------------------------------------------------------------------------|
A|-------------------------------------------------------------------------------------------------|
E|-------------------------------------------------------------------------------------------------|

E|-t18p15t18p15t18p15t18p15t18p15t18p15t18p15t18p15-|
B|--------------------------------------------------|
G|--------------------------------------------------|
D|--------------------------------------------------|
A|--------------------------------------------------|
E|--------------------------------------------------|
  bend string up three half steps and back down

E|-15p12t15/24p15p12t15/24p15p12t15/24p15p12t15/24p15p12t15/24p15p12t15/24p15p12t15/24p15p12t15/24-|
B|-------------------------------------------------------------------------------------------------|
G|-------------------------------------------------------------------------------------------------|
D|-------------------------------------------------------------------------------------------------|
A|-------------------------------------------------------------------------------------------------|
E|-------------------------------------------------------------------------------------------------|

E|-t18p15t18p15t18p15t18p15t18p15t18p15t18p15t18p15-|
B|--------------------------------------------------|
G|--------------------------------------------------|
D|--------------------------------------------------|
A|--------------------------------------------------|
E|--------------------------------------------------|
  bend string up three half steps and back down


E|-15p12t15/24p15p12t15/24p15p12t15/24p15p12t15/24p15p12t15/24p15p12t15/24-|
B|-------------------------------------------------------------------------|
G|-------------------------------------------------------------------------|
D|-------------------------------------------------------------------------|
A|-------------------------------------------------------------------------|
E|-------------------------------------------------------------------------|


E|-t18p15t18p15t18p15t18p15t18p15t18p15-|
B|--------------------------------------|
G|--------------------------------------|
D|--------------------------------------|
A|--------------------------------------|
E|--------------------------------------|

E|-15p12t15/24p15p12t15/24p15p12t15/24p15p12t15/24p-|
B|--------------------------------------------------|
G|--------------------------------------------------|
D|--------------------------------------------------|
A|--------------------------------------------------|
E|--------------------------------------------------|


E|-t18p15t18p15t18p15t18p15t-|
B|---------------------------|
G|---------------------------|
D|---------------------------|
A|---------------------------|
E|---------------------------|

  bend string up three half steps and back down



(x4)


Thats all I got so far.
Tap to rate this tab
# A B C D E F G H I J K L M N O P Q R S T U V W X Y Z