Song name
# A B C D E F G H I J K L M N O P Q R S T U V W X Y Z

Public Disturbance - Hopeless Romantic tab

This is an easy song to do , just have to get the hang of it.

Standar tuning:ebgdae

intro:

E---------------------------------------------------------------------|
B---------------------------------------------------------------------|
G---------------------------------------------------------------------|
D---------------------------------------------------------------------|
A----7-7-7-7-7-7-7-7-7-7-7-7-7-7-7-7----------------------------------|
E------------------------------------7-7-7-7-7-7-7-7-7-7-7-7-7-7-7-7--|


E---------------------------------------------------------------------|
B---------------------------------------------------------------------|
G---------------------------------------------------------------------|
D---------------------------------------------------------------------|
A---------------------------------------------------------------------|
E---4-4-4-4-4-4-4-4--2-2-2-2-2-2-2-2-2~-------------------------------|
                                      let ring....


Verses:

E-----------------------------------------------------------------------|
B-----------------------------------------------------------------------|
G----9-9-9-9-9-9-9-9-9-9-9-9-9-9-9-9------------------------------------|
D----9-9-9-9-9-9-9-9-9-9-9-9-9-9-9-9-9-9-9-9-9-9-9-9-9-9-9-9-9-9-9-9-9--|
A----7-7-7-7-7-7-7-7-7-7-7-7-7-7-7-7-9-9-9-9-9-9-9-9-9-9-9-9-9-9-9-9-9--|
E------------------------------------7-7-7-7-7-7-7-7-7-7-7-7-7-7-7-7-7--|


E---------------------------------------------------------------------|
B---------------------------------------------------------------------|
G---------------------------------------------------------------------|
D----6-6-6-6-6-6-6-6-4-4-4-4-4-4-4-4-4-4-4-4-4-4-4-4------------------|
A----6-6-6-6-6-6-6-6-4-4-4-4-4-4-4-4-4-4-4-4-4-4-4-4------------------|
E----4-4-4-4-4-4-4-4-2-2-2-2-2-2-2-2-2-2-2-2-2-2-2-2------------------|


Chorus: Use distortion.

E---------------------------------------------------------------------|
B---------------------------------------------------------------------|
G------------7-7-5------------7-7-5------------7-7-5------------7-7-5-|
D----5-5-9-9-9-9-7----5-5-9-9-9-9-7----5-5-9-9-9-9-7----5-5-9-9-9-9-7-|
A----5-5-9-9-9-9-7----5-5-9-9-9-9-7----5-5-9-9-9-9-7----5-5-9-9-9-9-7-|
E----3-3-7-7----------3-3-7-7----------3-3-7-7----------3-3-7-7-------|
Tap to rate this tab
# A B C D E F G H I J K L M N O P Q R S T U V W X Y Z