Song name
# A B C D E F G H I J K L M N O P Q R S T U V W X Y Z

Public Disturbance - Burn tab

Help us improve GuitareTab! Take a short survey!
e-----------------------------------------------------------------------|
b-----------------------------------------------------------------------|
g-----------------------------------------------------------------------|
d--2-2-2-2--3--2-2-2-2--0-repeat 2x-------7--7--7--7---8----------------|
a--2-2-2-2--3--2-2-2-2--0-repeat 2x-------7--7--7--7---8----------------|
d--2-2-2-2--3--2-2-2-2--0-repeat 2x-------7--7--7--7---8----------------|


 ----------------------------------------------------------------------------|
 ----------------------------------------------------------------------------|
 ----------------------------------------------------------------------------|
 ---5-5-5-5-6----5-5-5-5-3----7-7-7-7-8---7-7-7-7-5---8-8-5------------------|
 ---5-5-5-5-6----5-5-5-5-3----7-7-7-7-8---7-7-7-7-5---8-8-5------------------|
 ---5-5-5-5-6----5-5-5-5-3----7-7-7-7-8---7-7-7-7-5---8-8-5------------------|

 --------------------------------------------------------------------------|
 --------------------------------------------------------------------------|
 --------------------------------------------------------------------------|
 -----0-0-0-0-1-----1-2-3-0------------------------------------------------|
 -----0-0-0-0-1-----1-2-3-0-7----------------------------------------------|
 -----0-0-0-0-1-----1-2-3-0-7----------------------------------------------|
      pm          open

 ---------------------------------------------------------------------------|
 ---------------------------------------------------------------------------|
 ---------------------------------------------------------------------------|
 ---2-2-2-2-3----2-2-2-2-0--------------------------------------------------|
 ---2-2-2-2-3----2-2-2-2-0--------------------------------------------------|
 ---2-2-2-2-3----2-2-2-2-0--------------------------------------------------|


   we're still in the living room after six months so maybey in a couple years you'll 
up seeing our cd on the shelf at in your ear.
     trevis of public disturbance. p.s. sorry about all the chords.
Related for Burn tab