Song name
# A B C D E F G H I J K L M N O P Q R S T U V W X Y Z

Public Image Ltd - Poptones tab

Standard Tuning.


E|--5--------4--------------------------------4-----|
B|--------------------7--------5--------7-----------|
G|-----6--------6--------6--------6--------6-----6--|    Play this 4 times.
D|--------7--------7--------7--------7--------------|
A|--------------------------------------------------|
E|--------------------------------------------------|



E|--7--------6--------------------------------6-----|
B|--------------------9--------7--------9-----------|
G|-----8--------8--------8--------8--------8-----8--|     Play this 2 times.
D|--------9--------9--------9--------9--------------|
A|--------------------------------------------------|
E|--------------------------------------------------|

*Note. These are not the exact notes of the piece as Levene often adds in extra notes 
such as droning the open G string after playing the top E and B. But if you play this part 
it will fit.
Tap to rate this tab
 
# A B C D E F G H I J K L M N O P Q R S T U V W X Y Z