Song name
# A B C D E F G H I J K L M N O P Q R S T U V W X Y Z

Public Image Ltd - The Body tab

The Body
Public Image Limited

Standard tuning
Use lot of reverb, some flanger & other effects
Tabbed by mikimixx@aol.com


Main riff
---------------------------------------------------------------------|
---------------------------------------------------------------------|
---------------------------------------------------------------------|
---------------------------------------------------------------------|
---------------------------------------------------------------------|
--3-3-5-3---3-3-5-3---3---5-5---3-3-5-3----3-3-5-3---3-3-5-3---3-5---|


Chorus
----------------------------------------------|----------------------|
----------------------------------------------|----------------------|
----------------------------------------------|---2------------------|
--5-0-5-0-5-0-5-0-5-0-5-7--5-0-5-0-5-0-5-7----|---2------------------|
----------------------------------------------|---0------------------|
----------------------------------------------|----------------------|

Lyrics

When you run about without precaution
-----------------------------------------------------------|
--------------5--------------------------------------------|
---------2-------2--2---2---5------------------------------|
---------2----------2-------5------------------------------|
---------0----------0-------3------------------------------|
-----------------------------------------------------------|

...reputation
-----------------------------------------------------------|
-----------------------------------------------------------|
-----------------------------------------------------------|
--5-0-5-0-5-0-5-0-5-7--5-0-5-0-5-0-5-7---------------------|
-----------------------------------------------------------|
-----------------------------------------------------------|

Great song and very easy song to play & these easy ones
often sound the best. Happy playing.
Tap to rate this tab
# A B C D E F G H I J K L M N O P Q R S T U V W X Y Z