Song name
# A B C D E F G H I J K L M N O P Q R S T U V W X Y Z

Public Image Ltd - Public Image tab

-------------------------------------------------------------------------------
                             Public Image - Public Image Ltd
-------------------------------------------------------------------------------
Tabbed by: John Sardine
Tuning: STD

A version I play. Mainly playing with fingering around the Emaj7 chord on 7th fret
Keith Levine is sooo hard to tab. There`s at leat two guitars on the record so just
jam along to the record and find the groove.
 


Chords at the end of the intro bass riff - A/D



Part 1 - Intro and during the Public Image bit .... 

e|--------0-------------7-7-7--------7-7-7-7-----------------2-2-2-----------|
B|-7-7-7--7-------------9-7-9---7-7--9-7-9-7----------2-2-2--3-3-3-----------|
G|-9-9-9--8-------------8-8-8---9-9--8-8-8-7----------2-2-2--2-2-2-----------|
D|-9-9-9--9---X  4------9-9-9---9-9--9-9-9-9----------2-2-2--0-0-0-----------|
A|-7-7-7--7-------------7-7-7---7-7--7-7-7-7----------0-0-0------------------|
E|-0-0-0--0-------------0-0-0---0-0--0-0-0-0---------------------------------|


Part 2 - Verse

e|--------0-------------------2-2-2------------------------------------------|
B|-7-7-7--7------------2-2-2--3-3-3------------------------------------------|
G|-9-9-9--8------------2-2-2--2-2-2------------------------------------------|
D|-9-9-9--9--X 3-------2-2-2--0-0-0------------------------------------------|
A|-7-7-7--7------------0-0-0-------------------------------------------------|
E|-0-0-0--0------------------------------------------------------------------|



Part 3 - 2 note gtr bit 

e|--9-9-9-7---------------rpt twice at end of song---------------------------|
B|--0-0-0-0----X--11---------------------------------------------------------|
G|---------------------------------------------------------------------------|
D|---------------------------------------------------------------------------|
A|---------------------------------------------------------------------------|
E|---------------------------------------------------------------------------|
Tap to rate this tab
# A B C D E F G H I J K L M N O P Q R S T U V W X Y Z