Guitaretab - guitar tabs
Song name
# A B C D E F G H I J K L M N O P Q R S T U V W X Y Z

Public Image Ltd - Public Image tab

----------------------------------------------------------------------------
			     Public Image - Public Image Ltd
----------------------------------------------------------------------------
Tabbed by:slf10


Tuning:standard

intro

e|-------------2-2-2-2-2-2--------------------------------------------------|
B|-2-2--2-2-2--3-3-3-3-3-3--5-5-5-4--4-5-5-5-4--4-5-5-4--5-5-5-4--4-5-5-5-4-|
G|-2-2--2-2-2--2-2-2-2-2-2--4-4-4-4--4-4-4-4-4--4-4-4-4--4-4-4-4--4-4-4-4-4-|
D|-2-2--2-2-2---------------------------------------------------------------|
A|--------------------------------------------------------------------------|
E|--------------------------------------------------------------------------|

[ Tab from: http://www.guitaretab.com/p/public-image-ltd/99725.html ]
e|-----------------------------------------------------2-2-2-2-2-2----------|
B|-/9-9-9-9-9--5-5-5-4--4-5-5-5-4--4-5-5-4--22--2-2-2--3-3-3-3-3-3----------|
G|-/9-9-9-9-9--4-4-4-4--4-4-4-4-4--4-4-4-4--22--2-2-2--2-2-2-2-2-2----------|
D|------------------------------------------22--2-2-2-----------------------|
A|--------------------------------------------------------------------------|
E|--------------------------------------------------------------------------|

verses

e|--------------------------------------------------------------------------|
B|-5-5-5-4--4-5-5-5-4--4-5-5-4--5-5-5-4--4-5-5-5-4--4-5-5-4-----------------|
G|-4-4-4-4--4-4-4-4-4--4-4-4-4--4-4-4-4--4-4-4-4-4--4-4-4-4--(x2)-----------|
D|--------------------------------------------------------------------------|
A|--------------------------------------------------------------------------|
E|--------------------------------------------------------------------------|

chorus

e|-55-4-4-55-4-55-4-4-55-4-55-4-4-55-4-55-4-4-55-4--------------------------|
B|-55-5-5-55-5-55-5-5-55-5-55-5-5-55-5-55-5-5-55-5--------------------------|
G|--------------------------------------------------------------------------|
D|--------------------------------------------------------------------------|
A|--------------------------------------------------------------------------|
E|--------------------------------------------------------------------------|


thats all, just those three parts, listen to song for the timing.
Related for Public Image tab