Song name
# A B C D E F G H I J K L M N O P Q R S T U V W X Y Z

Puddle Of Mudd - Phsycho tab

I know intros suck but what the hell none of the other intros were quite right.

-------------------------------------------------------------------------------
			     SONG NAME - Band Name
-------------------------------------------------------------------------------
Tabbed by:Calvinstarr
Email:no

Tuning:eadgbe

e|------------------------------------------------------------------------|
B|---11--11---11--11-----11--11---11--12-----7--7---7--7-----7--7---7--9--|
G|---11--11---11--11-----11--11---11--12-----7--7---7--7-----7--7---7--9--|
D|---11--11---11--11-----11--11---11--12-----7--7---7--7-----7--7---7--9--|
A|--9---9----9---9------9---9----9--10------5--5---5--5-----5--5---5--7---|
E|------------------------------------------------------------------------|



Short but sweet. Have fun.
Tap to rate this tab
 
# A B C D E F G H I J K L M N O P Q R S T U V W X Y Z