Song name
# A B C D E F G H I J K L M N O P Q R S T U V W X Y Z

Puddle Of Mudd - Livin On Borrowed Time tab

Help us improve GuitareTab! Take a short survey!
-----------------------------------------------------------------------------
                 Puddle of Mudd  Livin' on Borrowed Time
-------------------------------------------------------------------------------
Tabbed by: McKenzie
hey i'm back i'm sorry about the other tab this is a little more correct.
after i finished the other tab i listened to the song again and i noticed
that i made a couple of errors so i'm back to fix them.
enjoy!! 

Tuning: Db Ab Db Gb Bb eb 

  Intro:
eb|---------------------------------------------------------------------------|
Bb|---------------------------------------------------------------------------|
Gb|---------------------------------------------------------------------------|
Db|-12h14--(x)--12h14-12h14-12~~-12h14--(x)--12h14-12h14-17~~-12h14--(x)------|
Ab|-12h14--(x)--12h14-12h14-12~~-12h14--(x)--12h14-12h14-17~~-12h14--(x)------|
Db|-12h14--(x)--12h14-12h14-12~~-12h14--(x)--12h14-12h14-17~~-12h14--(x)------|

eb|----------------------------------------------|
Bb|----------------------------------------------|
Gb|------------------16-16-16-17-17-17-20-20-20--|
Db|-12h14-12h14-12~~--x--x--x--x--x--x--x--x--x--|
Ab|-12h14-12h14-12~~-14-14-14-15-15-15-18-18-18--|
Db|-12h14-12h14-12~~-----------------------------|

  Chorus/ Intro
eb|----------------------------------|            eb----------------------
Bb|----------------------------------|            Bb----------------------
Gb|----------------------------------|            Gb----------------------
Db|-2-2-2-2-5-5-5-5-0-0-0-0-7-7-7-7--|  3x's then Db-2-2-2-2-5-5-5-5-0~~--
Ab|-2-2-2-2-5-5-5-5-0-0-0-0-7-7-7-7--|            Ab-2-2-2-2-5-5-5-5-0~~--
Db|-2-2-2-2-5-5-5-5-0-0-0-0-7-7-7-7--|            Db-2-2-2-2-5-5-5-5-0~~--


    This is what Wes plays during the intro/chorus
eb|--------------------------------------------------------------
Bb|--------------------------------------------------------------
Gb|-9-9-9-9-12-12-12-12-7-7-7-7-14-14-14-14-9-9-9-9-12-12-12-12--
Db|-x-x-x-x--x--x--x--x-x-x-x-x--x--x--x--x-x-x-x-x--x--x--x--x--
Ab|-7-7-7-7-10-10-10-10-5-5-5-5-12-12-12-12-7-7-7-7-10-10-10-10--
Db|--------------------------------------------------------------

eb|-------------------------------------------------------------------
Bb|-------------------------------------------------------------------
Gb|11-11-11-11-10-10-10-10--9--9--9--9--12--12--12--12--7--7--7--7----
Db|-x--x--x--x--x--x--x--x--x--x--x--x---x---x---x---x--x--x--x--x---- 
Ab|-9--9--9--9--8--8--8--8--7--7--7--7--10--10--10--10--5--5--5--5----
Db|-------------------------------------------------------------------

eb|-----------------------------------------------------------|
Bb|-----------------------------------------------------------|
Gb|-14--14--14--14--9--9--9--9--12--12--12--12--7~~--12/-11---|
Db|--x---x---x---x--x--x--x--x---x---x---x---x--x-----x---x---|
Ab|-12--12--12--12--7--7--7--7--10--10--10--10--5~~--10/--9---|
Db|-----------------------------------------------------------|


     VERSE 1: pretty much the same thing as the chorus except palm muted
eb|---------------------------------|
Bb|---------------------------------|
Gb|---------------------------------|
Db|-2-2-2-2-5-5-5-5-0-0-0-0-7-7-7-7-|   x4
Ab|-2-2-2-2-5-5-5-5-0-0-0-0-7-7-7-7-|
Db|-2-2-2-2-5-5-5-5-0-0-0-0-7-7-7-7-|
  p.m . . . . . . . . . . . . . . .
 
CHORUS both guitars

     Verse 2: same as thing as verse one except guitar 2 ( Wes ) plays this.
     and the first guitar plays the same riff as verse one except 8 times.
eb|-------------------------------------------------------------------------|
Bb|-------------------------------------------------------------------------|
Gb|--9-------12--------14-------17--------12-------9--------7-7-7-7-7-7-7-7-|
Db|--x--------x---------x--------x---------x-------x--------x-x-x-x-x-x-x-x-|
Ab|--7-------10--------12-------15--------10-------7--------5-5-5-5-5-5-5-5-|
Db|-------------------------------------------------------------------------|
    PLAY Chorus again with both guitars

   
    BRIDGE
eb|---------------------------------------------------------------
Bb|---------------------------------------------------------------
Gb|---------------------------------------------------------------
Db|-0h2-(x)-0h2-0h2-0~~-0h2--(x)-0h2-0h2-5~~--0h2-(x)-0h2-0h2-0~~-
Ab|-0h2-(x)-0h2-0h2-0~~-0h2--(x)-0h2-0h2-5~~--0h2-(x)-0h2-0h2-0~~-
Db|-0h2-(x)-0h2-0h2-0~~-0h2--(x)-0h2-0h2-5~~--0h2-(x)-0h2-0h2-0~~-

eb|------------------------------|
Bb|------------------------------|
Gb|-16-16-16--17-17-17-20-20-20--|
Db|--x--x--x---x--x--x--x--x--x--|
Ab|-14-14-14--15-15-15-18-18-18--|
Db|------------------------------|


 POST BRIDGE: Right here they play kinda of this soft part where
the guitar has no distortion and it is right before they head right into the 
chorus.

eb|-------------------------------------------------------|
Bb|----------2-------------------------2---8-8-7-7-5-5----|
Gb|----2--2-2----5-5--4-4-------2---2-2-------------------|
Db|-2-2---2------------------2-2----2---------------------|
Ab|-2------------------------2----------------------------|
Db|-------------------------------------------------------|

    Once again play the chorus with both guitars

     OUTRO

eb|----------------------------------------------------------------------|
Bb|----------------------------------------------------------------------|
Gb|----------------------------------------------------------------------|
Db|-2-2-2-2-5-5-5-5-0-0-0-0-8-9-8-7-7------2-2-2-2-5-5-5-5-0~~~~~~~~~----|
Ab|-2-2-2-2-5-5-5-5-0-0-0-0-8-9-8-7-7--x3--2-2-2-2-5-5-5-5-0~~~~~~~~~----|
Db|-2-2-2-2-5-5-5-5-0-0-0-0-8-9-8-7-7------2-2-2-2-5-5-5-5-0~~~~~~~~~----|


THANKS FOR ACTUALLY TAKING THE TIME TO LOOK AT MY TAB. 
Also i hope you guys got what you were looking for. Peace out

| /  slide up
| \  slide down
| h  hammer-on
| p  pull-off
| ~  let it ring
| +  harmonic
| x  Mute note
Related for Livin On Borrowed Time tab