Song name
# A B C D E F G H I J K L M N O P Q R S T U V W X Y Z

Puddle Of Mudd - Phsyco tab

this is the main part played during the verse


e|------------|-----------|-----------|------------|------------|
B|------------|-----------|-----------|------------|------------|
G|----14---14-|--14----15-|---10---10-|--10-----12-|----14------|
D|----15---15-|--15----16-|---11---11-|--11-----13-|----15------|
A|------------|-----------|-----------|------------|------------|
E|--13---13---|13----14---|--9----9---|-9-----11---|--13--------|

in the first verse only, it goes in to the chorus by playing this:

e----------------|-------------|------------|----------|
B----------------|-------------|------------|----------|
G--3--3--x--3--3-|3--3-3-5-5-5-|6-6-x-6-6-6-|6-6-6-8-8-|
D--3--3--x--3--3-|3--3-3-5-5-5-|6-6-x-6-6-6-|6-6-6-8-8-|
A--1--1--x--1--1-|1--1-1-3-3-3-|4-4-x-4-4-4-|4-4-4-6-6-|
E----------------|-------------|------------|----------|


now for the chorus (i dont know the words exactly so...) :

e|--------------------------------------------------------------------|
B|--------------------------------------------------------------------|
G|--------------------------------------------------------------------|
D|--------------------------------------------------------------------|
A|--3-3-3-3-3-3-3-3-3-3-3-3-3-3-3-3-3-3-3-3-6--6--4-4-4-4-4-4-4-4-4-4-|
E|--1-1-1-1-1-1-1-1-1-1-1-1-1-1-1-1-1-1-1-1-6--6--4-4-4-4-4-4-4-4-4-4-|
               maybe im the one      maybe im the one, who wears the

e|------------------------------|
B|------------------------------|
G|------------------------------|
D|------------------------------|
A|-4-4-4-4-4-4-4-4-4-4-6-3-3-3-3|
E|-4-4-4-4-4-4-4-4-4-4-6-1-1-1-1|
    schizophrenic phsyco yeah                        repeat this for chorus

now, for the seconed chorus only, right after it he starts like a sorta 
now i have no idea what the words are but im gonna tab it out for ya


e-------------------------------------------------------------------|
B-------------------------------------------------------------------|
G-------------------------------------------------------------------|
D----------------------------------3-3-3-3-3-3-3-3------------------|
A-3-3-3-3-3-3-3-3-3-3-3-3-3-3-3-3--1-1-1-1-1-1-1-1--6-6-6-6-6-6-6-6-|
E-1-1-1-1-1-1-1-1-1-1-1-1-1-1-1-1-------------------4-4-4-4-4-4-4-4-|

do that 3 times then it goes back to the verse

now the trickiest part of the whole song
the 3rd time the chorus comes around you play it 4 times and then it goes into a fast 
thats real hard to get the first time so

e|-----------------------------------------------------------------|
B|-----------------------------------------------------------------|
G|-----------------------------------------------------------------|
D|---3-3---3-3---3-3-6-6-6-6-6-6---3-3---3-3---3-3-----------------|
A|-6-3-3-6-3-3-6-3-3-6-6-6-6-6-6-6-3-3-6-3-3-6-3-3-4~~~~~~~~~~~~~~-|
E|-6-1-1-6-1-1-6-1-1-4-4-4-4-4-4-6-1-1-6-1-1-6-1-1-4~~~~~~~~~~~~~~-|

just let the last note ring out
Tap to rate this tab
# A B C D E F G H I J K L M N O P Q R S T U V W X Y Z