Song name
# A B C D E F G H I J K L M N O P Q R S T U V W X Y Z

Puddle Of Mudd - Out Of My Head tab

Tuning: C# G# C# F# Bb D#
(Tune 1/2 step down, then drop C#)

====================#
Intro / Verse       #
====================#

Riff 1a (3x)
|--------------------------------------|
|--------------------------------------|
|--------------------------------------|
|--------------------------------------|
|--------------------------------------|
|-8-8-8-0--0-<9>-0-0-0-<9>-0-0-0-<9>-0-|

Riff 1b (1x)
|-----------------------------------------------|
|-----------------------------------------------|
|-----------------------------------------------|
|-----------------------------10-10-10-10-8-8-8-|
|-----------------------------10-10-10-10-8-8-8-|
|-8-8-8-0--0-<9>-0-0-0-<9>-0--10-10-10-10-8-8-8-|

Riff 1c (3x)
|--------------------------------------|
|--------------------------------------|
|--------------------------------------|
|-0--0-<9>-0-0-0-<9>-0-0-0-<9>-0-8-8-8-|
|-0--0-<9>-0-0-0-<9>-0-0-0-<9>-0-8-8-8-|
|-0--0-<9>-0-0-0-<9>-0-0-0-<9>-0-8-8-8-|

Riff 1d (1x)
|-------------------------------------------|
|-------------------------------------------|
|-------------------------------------------|
|-0--0-<9>-0-0-0-<9>-0--10-10-10-10-8-8-8-0-|
|-0--0-<9>-0-0-0-<9>-0--10-10-10-10-8-8-8-0-|
|-0--0-<9>-0-0-0-<9>-0--10-10-10-10-8-8-8-0-|


Riff 2a (1x)
|----------------|-----------------------|
|-----7--8-7-10--|-----7--8----7----7----|
|-5-7------------|-5-7-------7----7---7--|
|----------------|-----------------------|
|----------------|-----------------------|
|----------------|-----------------------|


Riff 2b (1x)
|---------------------|--------------------------|
|-----7--8-7-10---7---|-----7--------------------|
|-5-7-----------7---7-|-5-7----------------------|
|---------------------|--------10-10-10-10-8-8-8-|
|---------------------|--------10-10-10-10-8-8-8-|
|---------------------|--------10-10-10-10-8-8-8-|

Riff 1c (3x)

Riff 1e (1x)
|----------------------------------------|
|----------------------------------------|
|----------------------------------------|
|-10-10-10-10-10-10-10-10-8-8-8-8-8-10---|
|-10-10-10-10-10-10-10-10-8-8-8-8-8-10---|
|-10-10-10-10-10-10-10-10-8-8-8-8-8-10---|


====================#
Chorus 1            #
====================#

Riff 3a
|-----------------------------------------------------------------|
|-----------------------------------------------------------------|
|---------------------------------5-5-5-5-5-5-5-5-----------------|
|-0-0-0-0-0-0-0-0-0-0-0-0-0-0-0-0-5-5-5-5-5-5-5-5-3-3-3-3-3-3-3-3-|
|-0-0-0-0-0-0-0-0-0-0-0-0-0-0-0-0-3-3-3-3-3-3-3-3-3-3-3-3-3-3-3-3-|
|-0-0-0-0-0-0-0-0-0-0-0-0-0-0-0-0-----------------3-3-3-3-3-3-3-3-|

Riff 3b
|------------------------------------------------------------------|
|------------------------------------------------------------------|
|---------------------------------5-5-5-5-5-5-5-5------------------|
|-0-0-0-0-0-0-0-0-0-0-0-0-0-0-0-0-5-5-5-5-5-5-5-5-3-3-3-3/8-8-8-8\-|
|-0-0-0-0-0-0-0-0-0-0-0-0-0-0-0-0-3-3-3-3-3-3-3-3-3-3-3-3/8-8-8-8\-|
|-0-0-0-0-0-0-0-0-0-0-0-0-0-0-0-0-----------------3-3-3-3/8-8-8-8\-|


====================#
Chorus 2            #
====================#

Riff 3a  (4x)


====================#
Bridge              #
====================#
Riff 5a (3x)			  Riff 5b (1x)
|-------------------------------  |---------------------------|
|-------------------------------  |---------------------------|
|-5-5-5-------------------------  |-5-5-5--------3--3-3-------|
|-5-5-5-3--3-3-0----------------  |-5-5-5-3--3-3-3--3-3-0-----|
|-3-3-3-3--3-3-0--5-5/7-7/10-10-  |-3-3-3-3--3-3-1--1-1-0-----|
|-------3--3-3-0~~~~~~~~~~~~~~~~  |-------3--3-3--------0-----|

Riff 1a (2x)
Riff 1d (1x)
Riff 1e (1x) P.M.


====================#
Chorus 3            #
====================#

Riff 3a (6x)


====================#
Ending              #
====================#
Riff 5a (3x)

Riff 5c
|--------------------------------------------|
|--------------------------------------------|
|-5-5-5--------3--3-3---------------3--3-3---|
|-5-5-5-3--3-3-3--3-3-0--0-0-3--3-3-3--3-3-0-|
|-3-3-3-3--3-3-1--1-1-0--0-0-3--3-3-1--1-1-0-|
|-------3--3-3--------0--0-0-3--3-3--------0-|
Tap to rate this tab
# A B C D E F G H I J K L M N O P Q R S T U V W X Y Z