Song name
# A B C D E F G H I J K L M N O P Q R S T U V W X Y Z

Puddle Of Mudd - Nothing Left To Lose tab

Nothing left to lose


tunning: drop-D 1/2 step down(Db Ab Db Gb Bb Eb)

intro disto
---------------------------------------------------|
---------------------------------------------------|
---------------------------------------------------|  X3
---------------------------------------------------|
------------------------8-8-8-10-------------------|
--10/12--12--10/12--12-----------------------------|


intro ends
---------------------------------------------------|
---------------------------------------------------|
------------------7------------7-------------------|
---------------5------------5----------------------|
---------6--6---------6--6-------------------------|
---------------------------------------------------|

Verse guit 1
Palm mute
---------------------------------------------------|
---------------------------------------------------|
-------------------------------10*-10*-10*-12*-----|
--10*-12*--12*---10*-12*--12*--10*-10*-10*-12*-----|
--10*-12*--12*---10*-12*--12*--8*--8*--8*--10*-----|
--10*-12*--12*---10*-12*--12*----------------------|

Verse guit 2
---------------------------------------------------|
----------10---------------------7-----------------|
---------------------------------------------------|
---------------------------------------------------|
---------------------------------------------------|
---------------------------------------------------|

Chorus
---------------------------------------------------|
-------------------------------8-8-8-8-------------|
--5-7-7-----------------------0-0-0-0--------------|
--5-7-7--6-6-6-5-5-3--3--3-------------------------|
--3-5-5--6-6-6-5-5-3--3--3-------------------------|
---------6-6-6-5-5-3--3--3-------------------------|

Bridge
---------------------------------------------------|
-------------------------------8-8-8-8-------------|
------------------------------0-0-0-0--------------|
----5---3-3-3-3------------------------------------|
----5---3-3-3-3------------------------------------|
----5---3-3-3-3------------------------------------|


---------------------------------------------------|
---------------------------------------------------|
-3-3-3--5-5-5--------------------------------------|
-3-3-3--5-5-5--3--5-5-3-0--------------------------|
-1-1-1--3-3-3--3--5-5-3-0--------------------------|
---------------3--5-5-3-0--------------------------|

---------------------------------------------------|
---------------------------------------------------|
-------------------------10-10-10-12---------------|
--10-12--12---10-12--12--10-10-10-12---------------|
--10-12--12---10-12--12--8--8--8--10---------------|
--10-12--12---10-12--12----------------------------|

---------------------------------------------------|
---------------------------------------------------|
------------------7------------7-------------------|
---------------5------------5----------------------|
---------6--6---------6--6-------------------------|
---------------------------------------------------|

Chorus
---------------------------------------------------|
-------------------------------8-8-8-8-------------|
--5-7-7-----------------------0-0-0-0--------------|
--5-7-7--6-6-6-5-5-3--3--3-------------------------|
--3-5-5--6-6-6-5-5-3--3--3-------------------------|
---------6-6-6-5-5-3--3--3-------------------------|

---------------------------------------------------|
-------------------------------8-8-8-8-------------|
------------------------------0-0-0-0--------------|
----5---3-3-3-3------------------------------------| X2
----5---3-3-3-3------------------------------------|
----5---3-3-3-3------------------------------------|

---------------------------------------------------|
-------------------------------8-8-8-8-------------|
------------------------------0-0-0-0--------------|
----3---0-0-0-0------------------------------------|
----3---0-0-0-0------------------------------------|
----3---0-0-0-0------------------------------------|

---------------------------------------------------|
------------------8-8-8-8--------------------------|
---------------- 0-0-0-0---------------------------|
----5---3-3-3-3-------------0----------------------|
----5---3-3-3-3-------------0----------------------|
----5---3-3-3-3-------------0----------------------|

Enjoy the song

Fire_Death
Tap to rate this tab
# A B C D E F G H I J K L M N O P Q R S T U V W X Y Z