Song name
# A B C D E F G H I J K L M N O P Q R S T U V W X Y Z

Puddle Of Mudd - Psycho tab

Help us improve GuitareTab! Take a short survey!
----------------------------------------------------------------------------
			     PSYCHO - Puddle of Mudd
----------------------------------------------------------------------------
Tabbed by:Dan Slindee
Email:slind020@umn.edu

Tuning:Drop Db (Db Ab Db Gb Bb Eb)

Intro/Verse
(Reverb w/Light Distortion)
Eb|--------------------------------------------|
Bb|------11---11---11----12---7---7---7---9----|
Gb|------11---11---11----12---7---7---7---9----|Repeat
Db|--------------------------------------------|
Ab|----9----9----9----10----5---5---5---7------|
Db|--------------------------------------------|

Pre Chorus
Eb|---------------------------------------|
Bb|-----4---4---4---6---7---7---7---------|
Gb|-----4---4---4---6---7---7---7-9999----|
Db|-------------------------------9999----|
Ab|---2---2---2---4---5---5---5---7777----|
Db|---------------------------------------|

Chorus 
(Heavy Distortion)
Eb|-------------------------------------|
Bb|-------------------------------------|
Gb|---(6666)---(6669)-(2222)---(4444)---|
Db|----4444-----4447---0000-----2222----|Repeat
Ab|----4444-X3--4447---0000-X3--2222----|
Db|----4444-----4447---0000-----2222----|

2nd Half of Chorus 2
Eb|---------------------------------|
Bb|---------------------------------|
Gb|-------------4444-----2222-------|
Db|----4444-----4444-X2--2222-X2----|Repeat
Ab|----4444-X4--2222-----0000-------|
Db|----4444-------------------------|

Outro
Eb|--------------------------------------------------------|
Bb|--------------------------------------------------------|
Gb|--------------------------------------------------------|
Db|----2-44-2-44-2-44-2-44--7777--2-44-2-44-2-44-2444-0~~~~|
Ab|----2-44-2-44-2-44-2-44--7777--2-44-2-44-2-44-2444-0~~~~|
Db|----2-44-2-44-2-44-2-44--7777--2-44-2-44-2-44-2444-0~~~~|

Listen to song for organization
Enjoy
| /  slide up
| \  slide down
| h  hammer-on
| p  pull-off
| ~  vibrato
| +  harmonic
| x  Mute note
============================================================================
Related for Psycho tab