Song name
# A B C D E F G H I J K L M N O P Q R S T U V W X Y Z

Puddle Of Mudd - Merry-go-round tab

Tuning: Drop C#

Intro: (Played once with some kind of effect) (Easy to find the strum patterns)
======
1|-----------------------------|
2|-----------------------------|
3|----6------------------------|
4|----6------7------4----------|
5|----4------7------4----------|
6|-----------7------4----------|

===== Play this 3 more times
1|-----------------------------|
2|-----------------------------|
3|----6------------------------|
4|----6------7------4----------|
5|----4------7------4----------|
6|-----------7------4----------|


=====
1|-------------------------------------------------------------------|
2|-------------------------------------------------------------------|
3|-------------------------------------------------------------------|
4|---44444444444444/6------66666666666666/7------777777777777777-----|
5|---44444444444444/6------66666666666666/7------777777777777777-----|
6|---44444444444444/6------66666666666666/7------777777777777777-----|
     PM-----------         PM-----------         PM------------------|(slowly ease off)


===== Chorus (Play 3 times)
1|------------------------------------|
2|------------------------------------|
3|----6--6--4/3----4---4-4------------|
4|----6--6---------4---4-4-2-2/4-4----|
5|----4--4---------2---2-2-2-2/4-4----|
6|-------------------------2-2/4-4----|


===== Throw this on the end of the third one
1|------------------------------|
2|------------------------------|
3|------------------------------|
4|---0h444444445555522----------|
5|---0h444444445555522----------|
6|---0h444444445555522----------|

                                        ______
===== Guitar 1                                |
1|-----------------------------------------|  |
2|-----------------------------------------|  |
3|-----------------------------------------|  |
4|-----------------------------------------|  |
5|----4444444444444444---------------------|  |
6|--------------------7777777444444444-----|  |
      PM------------------------------        |
                                              |
===== Guitar 2                                | Play 2 times
1|-----------------------------------------|  |
2|----6666666666666666---------------------|  |
3|--------------------6666666333333333-----|  |
4|-----------------------------------------|  |
5|-----------------------------------------|  |
6|-----------------------------------------|  |
      PM------------------------------________|


===== Play this 2 times
1|-----------------------------|
2|-----------------------------|
3|----6------------------------|
4|----6------7------4----------|
5|----4------7------4----------|
6|-----------7------4----------|


=====
1|-------------------------------------------------------------------|
2|-------------------------------------------------------------------|
3|-------------------------------------------------------------------|
4|---44444444444444/6------66666666666666/7------777777777777777-----|
5|---44444444444444/6------66666666666666/7------777777777777777-----|
6|---44444444444444/6------66666666666666/7------777777777777777-----|
     PM-----------         PM-----------         PM------------------|(slowly ease off)


===== Chorus (Play 3 times)
1|------------------------------------|
2|------------------------------------|
3|----6--6--4/3----4---4-4------------|
4|----6--6---------4---4-4-2-2/4-4----|
5|----4--4---------2---2-2-2-2/4-4----|
6|-------------------------2-2/4-4----|


===== Throw this on the end of the third one
1|------------------------------|
2|------------------------------|
3|------------------------------|
4|---0h444444445555522----------|
5|---0h444444445555522----------|
6|---0h444444445555522----------|

PLAY THE 2 PREVIOUS STANZAS SAME AS DIRECTED THEN
v
v
v

===== Interlude (Play this a total of 4 times with tremolo)
1|------------------------------------------------------------------------------------------------|
2|14-14-14-14-14-14-14-14-12-12-12-12-14-14-14-12-11-11-11-11-11-11-11-11-11-11-11-11-11-12-12-12-|
3|11-11-11-11-11-11-11-11-11-11-11-11-11-11-11-11-11-11-11-11-11-11-11-11-11-11-11-11-11-11-11-11-|
4|------------------------------------------------------------------------------------------------|
5|------------------------------------------------------------------------------------------------|
6|------------------------------------------------------------------------------------------------|

===== On the 3rd time, this is played with it (Let all notes ring out)
1|------------------------------------------------|
2|--14-------12---12/14---14/11------------11/12--|
3|------------------------------------------------|
4|------------------------------------------------|
5|------------------------------------------------|
6|------------------------------------------------|

===== And on the 4th time, the exact thing is played except a little wah is used
1|------------------------------------------------|
2|--14-------12---12/14---14/11------------11/12--|
3|------------------------------------------------|
4|------------------------------------------------|
5|------------------------------------------------|
6|------------------------------------------------|


===== Chorus (Play 3 times)
1|------------------------------------|
2|------------------------------------|
3|----6--6--4/3----4---4-4------------|
4|----6--6---------4---4-4-2-2/4-4----|
5|----4--4---------2---2-2-2-2/4-4----|
6|-------------------------2-2/4-4----|


===== Throw this on the end of the third one
1|------------------------------|
2|------------------------------|
3|------------------------------|
4|---0h444444445555522----------|
5|---0h444444445555522----------|
6|---0h444444445555522----------|

PLAY THE 2 PREVIOUS STANZAS SAME AS DIRECTED THEN
v
v
v

===== Outro (Play 4 times)
1|---------------------------|
2|---------------------------|
3|----6666666----------------|
4|----6666666555555542-------|
5|----4444444555555542-------|
6|-----------555555542-------|


That's it :)

I'm confident that it's pretty much accurate maybe if you have an easier way to play a 
part, let me

know.

h3xagram3@gmail.com
Tap to rate this tab
# A B C D E F G H I J K L M N O P Q R S T U V W X Y Z