Song name
# A B C D E F G H I J K L M N O P Q R S T U V W X Y Z

Puddle Of Mudd - Spaceship chords

-----------------------------------------------------------------
Spaceship (2009) - Puddle of Mudd
-----------------------------------------------------------------
Tablature by Ian Marquis
Email: marquisij@gmail.com	
Tuning: Standard (EADGBE)

Alright, I'll admit it - this song is pretty dumb, but it's also
catchy as hell. There aren't any tabs written for it yet, so I
thought I'd try my hand at one. By ear, of course. Parts are in
order of appearance.

Main Riff:

|--------------------------------------------------|
|--------------------------------------------------|
|--3-3-X----X-3-3-X----X-6-6-X----X-6-6--6-/8-8-X--|
|--3-3-X-33-X-3-3-X-33-X-6-6-X-66-X-6-6--6-/8-8-X--|
|--1-1-X-33-X-1-1-X-33-X-4-4-X-66-X-4-4--4-/8-8-x--|
|--------11---------11---------44------------------|

|--------------------------------------|
|--------------------------------------|
|--3-3-X----X-3-3-X----X-6-6-X----X-6--|
|--3-3-X-33-X-3-3-X-33-X-6-6-X-66-X-6--|
|--1-1-X-33-X-1-1-X-33-X-4-4-X-66-X-4--|
|--------11---------11---------44------|

Lead Bends:

|--6-----------4---|
|--9b----6-----7b--|
|--------8b--------|
|------------------|
|------------------|
|------------------|

Bridge to Verse:

|-----------------------------------|
|-----------------------------------|
|--3-3-3-3-4-4-4-7-7-7-7-7-7-7-7-7--| (Repeat 2x)
|--3-3-3-3-4-4-4-7-7-7-7-7-7-7-7-7--|
|--1-1-1-1-2-2-2-5-5-5-5-5-5-5-5-5--|
|-----------------------------------|

Lead Bends 2:

|--6-------------| Play the first bend and release
|--9b^r----6-----| quickly, 8 times, and the second
|----------8b^r--| 5 times, the last time bending
|----------------| slowly with no release.
|----------------|
|----------------|

Lead Thing #3:

|--6---6---6---6---9---9---9---9----|
|----6---6---6---6---9---9---9---9--|
|-----------------------------------| (Repeat 2x)
|-----------------------------------|
|-----------------------------------|
|-----------------------------------|

Order of Parts:

Drum Intro with Noise
Main Riff 1X (heavy)
Main Riff on Bass (second half with Lead Bends)
Main Riff 1X (Funky Clean)
Main Riff 1X (Heavy)
Bridge to Verse
Main Riff .5X (with Lead Bends 2)
Main Riff 1X(Funky Clean - second half with Lead Bends)
Main Riff 1X(Funky Clean, with Lead Thing #3)
Main Riff 1X(Heavy)

...you know what? Screw this - you get the idea. The whole song
is the same four chords. Listen to the damn thing. You'll get it.
Tap to rate this tab
# A B C D E F G H I J K L M N O P Q R S T U V W X Y Z