Song name
# A B C D E F G H I J K L M N O P Q R S T U V W X Y Z

Puddle Of Mudd - Uno Mas tab

Band:Puddle of Mudd
Song:Uno Mas

Tuning:Standard

This is my first tab, so i hope it goes well. There aren't too many tabs for the new 
4 Album so I'll work on it, but here's a start. Uno Mass, It's a pretty easy song, here are 
chords for the intro, verse, chorus, and bridge, just listen to song for the pattern.

Intro:
|------------------------------------|
|------------------------------------|
|---6-----------7----6---------------|
|---6--6--9--4--7----6--6--9--4--7---| X2
|---4--6--9--4--5----4--6--9--4--7---|
|------4--7--2----------4--7--2--5---|


Verse:
|------------X-------------X---------|
|------------X-------------X---------|
|---6--------X----6--------X---------|
|---6--6--9--X----6--6--9--X--6--5---|X4
|---4--6--9--X----4--6--9--X--6--5---|
|------4--7--X-------4--7--X--4--3---|

Chorus:
|------------------------------------|
|------------------------------------|
|---6-----------7----6---------------|
|---6--6--9--4--7----6--6--9--4--7---|X2
|---4--6--9--4--5----4--6--9--4--7---|
|------4--7--2----------4--7--2--5---|

Repeat Verse.
Repeat Chorus

Bridge:
|-------------------------------|
|-------------------------------|
|---7--4------------------------|  X3
|---7--4--4----2-1--------------|
|---5--2--4--------4-2-1--------|
|---------2--------------4-2-0--|
"Oh yeah, and oh yeah and oh yeah."

|-------------------------------|
|-------------------------------|
|----7--9--11-------------------|
|----7--9--11-------------------|  X1
|----5--7--9--------------------|
|-------------------------------|

Bridge Pt 2
PM------------------------------------|
|-------------------------------------|
|-------------------------------------|
|---6-----------7----6----------------|
|---6--6--9--4--7----6--6--9--4--7----|
|---4--6--9--4--5----4--6--9--4--7----|
|------4--7--2----------4--7--2--5----|

Chorus repeats to the end, end on A5
Tap to rate this tab
 
# A B C D E F G H I J K L M N O P Q R S T U V W X Y Z