Song name
# A B C D E F G H I J K L M N O P Q R S T U V W X Y Z

Puddle Of Mudd - Living On Borrowed Time tab

This is my first tab that i've worked on.

There are 2 guitars in this song: Rhythm and Lead.
This tab covers mainly the Rhythm part. (you do the timing :P )

I'am not really sure about the harmonic part during the Rest, but it sounds good. But 
free to add you're own harmonics/fill. ;)

Also, the Outro has a weird/different timing but i think i tabbed it quite right.....

Enough of the talking, enjoy the tab:

Tuning: Db Ab Db Gb Bb eb

Intro:

eb|------------------------------------------------------------------------|
Bb|------------------------------------------------------------------------|
Gb|------------------------------------------------------------------------|
Db|-12h14--12h14-12h14-12~~-12h14--12h14-12h14-17~~-12h14--12h14-12h14-12~~|
Ab|-12h14--12h14-12h14-12~~-12h14--12h14-12h14-17~~-12h14--12h14-12h14-12~~|
Db|-12h14--12h14-12h14-12~~-12h14--12h14-12h14-17~~-12h14--12h14-12h14-12~~|

eb|--------------|
Bb|--------------|
Gb|-7-7-7-8-8-8-8|
Db|-x-x-x-x-x-x-x|
Ab|-5-5-5-6-6-6-6|
Db|--------------|


Chorus:

eb|--------------------------------|
Bb|--------------------------------|
Gb|--------------------------------|
Db|-2-2-2-2-5-5-5-5-0-0-0-0-7-7-7-5|
Ab|-2-2-2-2-5-5-5-5-0-0-0-0-7-7-7-5|
Db|-2-2-2-2-5-5-5-5-0-0-0-0-7-7-7-5|

eb|--------------------------------|
Bb|--------------------------------|
Gb|--------------------------------|
Db|-2-2-2-2-5-5-5-5-0-0-0-0-7-8-7-5|
Ab|-2-2-2-2-5-5-5-5-0-0-0-0-7-8-7-5|
Db|-2-2-2-2-5-5-5-5-0-0-0-0-7-8-7-5|

eb|--------------------------------|
Bb|--------------------------------|
Gb|--------------------------------|
Db|-2-2-2-2-5-5-5-5-0-0-0-0-7-7-7-5|
Ab|-2-2-2-2-5-5-5-5-0-0-0-0-7-7-7-5|
Db|-2-2-2-2-5-5-5-5-0-0-0-0-7-7-7-5|

eb|--------------------|
Bb|--------------------|
Gb|--------------------|
Db|-2-2-2-2-5-5-5-5-0~~|
Ab|-2-2-2-2-5-5-5-5-0~~|
Db|-2-2-2-2-5-5-5-5-0~~|


Verse:

eb|--------------------------------|
Bb|--------------------------------|
Gb|--------------------------------|
Db|-2-2-2-2-5-5-5-5-0-0-0-0-7-7-7-7|
Ab|-2-2-2-2-5-5-5-5-0-0-0-0-7-7-7-7|
Db|-2-2-2-2-5-5-5-5-0-0-0-0-7-7-7-7|
    p p p p p p p p p p p p p p p p

eb|--------------------------------|
Bb|--------------------------------|
Gb|--------------------------------|
Db|-2-2-2-2-5-5-5-5-0-0-0-0-7-7-7-5|
Ab|-2-2-2-2-5-5-5-5-0-0-0-0-7-7-7-5|
Db|-2-2-2-2-5-5-5-5-0-0-0-0-7-7-7-5|
    p p p p p p p p p p p p p p p p

eb|--------------------------------|
Bb|--------------------------------|
Gb|--------------------------------|
Db|-2-2-2-2-5-5-5-5-0-0-0-0-7-7-7-7|
Ab|-2-2-2-2-5-5-5-5-0-0-0-0-7-7-7-7|
Db|-2-2-2-2-5-5-5-5-0-0-0-0-7-7-7-7|
    p p p p p p p p p p p p p p p p

eb|--------------------------------|
Bb|--------------------------------|
Gb|--------------------------------|
Db|-2-2-2-2-5-5-5-5-0-0-0-0-7-7-7-5|
Ab|-2-2-2-2-5-5-5-5-0-0-0-0-7-7-7-5|
Db|-2-2-2-2-5-5-5-5-0-0-0-0-7-7-7-5|
    p p p p p p p p p p p p

Chorus:

eb|--------------------------------|
Bb|--------------------------------|
Gb|--------------------------------|
Db|-2-2-2-2-5-5-5-5-0-0-0-0-7-7-7-5|
Ab|-2-2-2-2-5-5-5-5-0-0-0-0-7-7-7-5|
Db|-2-2-2-2-5-5-5-5-0-0-0-0-7-7-7-5|

eb|--------------------------------|
Bb|--------------------------------|
Gb|--------------------------------|
Db|-2-2-2-2-5-5-5-5-0-0-0-0-7-8-7-5|
Ab|-2-2-2-2-5-5-5-5-0-0-0-0-7-8-7-5|
Db|-2-2-2-2-5-5-5-5-0-0-0-0-7-8-7-5|

eb|--------------------------------|
Bb|--------------------------------|
Gb|--------------------------------|
Db|-2-2-2-2-5-5-5-5-0-0-0-0-7-7-7-5|
Ab|-2-2-2-2-5-5-5-5-0-0-0-0-7-7-7-5|
Db|-2-2-2-2-5-5-5-5-0-0-0-0-7-7-7-5|

eb|--------------------------------|
Bb|--------------------------------|
Gb|--------------------------------|
Db|-2-2-2-2-5-5-5-5-0-0-0-0-7-8-7-5|
Ab|-2-2-2-2-5-5-5-5-0-0-0-0-7-8-7-5|
Db|-2-2-2-2-5-5-5-5-0-0-0-0-7-8-7-5|


Verse:

eb|--------------------------------|
Bb|--------------------------------|
Gb|--------------------------------|
Db|-2-2-2-2-5-5-5-5-0-0-0-0-7-7-7-7|
Ab|-2-2-2-2-5-5-5-5-0-0-0-0-7-7-7-7|
Db|-2-2-2-2-5-5-5-5-0-0-0-0-7-7-7-7|
    p p p p p p p p p p p p p p p p

eb|--------------------------------|
Bb|--------------------------------|
Gb|--------------------------------|
Db|-2-2-2-2-5-5-5-5-0-0-0-0-7-7-7-5|
Ab|-2-2-2-2-5-5-5-5-0-0-0-0-7-7-7-5|
Db|-2-2-2-2-5-5-5-5-0-0-0-0-7-7-7-5|
    p p p p p p p p p p p p p p p p

eb|--------------------------------|
Bb|--------------------------------|
Gb|--------------------------------|
Db|-2-2-2-2-5-5-5-5-0-0-0-0-7-7-7-7|
Ab|-2-2-2-2-5-5-5-5-0-0-0-0-7-7-7-7|
Db|-2-2-2-2-5-5-5-5-0-0-0-0-7-7-7-7|
    p p p p p p p p p p p p p p p p

eb|--------------------------------|
Bb|--------------------------------|
Gb|--------------------------------|
Db|-2-2-2-2-5-5-5-5-0-0-0-0-7-7-7-5|
Ab|-2-2-2-2-5-5-5-5-0-0-0-0-7-7-7-5|
Db|-2-2-2-2-5-5-5-5-0-0-0-0-7-7-7-5|
    p p p p p p p p p p p p p p p p

eb|--------------------------------|
Bb|--------------------------------|
Gb|--------------------------------|
Db|-2-2-2-2-5-5-5-5-0-0-0-0-7-7-7-7|
Ab|-2-2-2-2-5-5-5-5-0-0-0-0-7-7-7-7|
Db|-2-2-2-2-5-5-5-5-0-0-0-0-7-7-7-7|
    p p p p p p p p p p p p p p p p

eb|--------------------------------|
Bb|--------------------------------|
Gb|--------------------------------|
Db|-2-2-2-2-5-5-5-5-0-0-0-0-7-7-7-5|
Ab|-2-2-2-2-5-5-5-5-0-0-0-0-7-7-7-5|
Db|-2-2-2-2-5-5-5-5-0-0-0-0-7-7-7-5|
    p p p p p p p p p p p p p p p p

eb|--------------------------------|
Bb|--------------------------------|
Gb|--------------------------------|
Db|-2-2-2-2-5-5-5-5-0-0-0-0-7-7-7-7|
Ab|-2-2-2-2-5-5-5-5-0-0-0-0-7-7-7-7|
Db|-2-2-2-2-5-5-5-5-0-0-0-0-7-7-7-7|
    p p p p p p p p p p p p p p p p

eb|--------------------------------|
Bb|--------------------------------|
Gb|--------------------------------|
Db|-2-2-2-2-5-5-5-5-0-0-0-0-7-7-7-5|
Ab|-2-2-2-2-5-5-5-5-0-0-0-0-7-7-7-5|
Db|-2-2-2-2-5-5-5-5-0-0-0-0-7-7-7-5|
    p p p p


Chorus:

eb|--------------------------------|
Bb|--------------------------------|
Gb|--------------------------------|
Db|-2-2-2-2-5-5-5-5-0-0-0-0-7-7-7-5|
Ab|-2-2-2-2-5-5-5-5-0-0-0-0-7-7-7-5|
Db|-2-2-2-2-5-5-5-5-0-0-0-0-7-7-7-5|

eb|--------------------------------|
Bb|--------------------------------|
Gb|--------------------------------|
Db|-2-2-2-2-5-5-5-5-0-0-0-0-7-8-7-5|
Ab|-2-2-2-2-5-5-5-5-0-0-0-0-7-8-7-5|
Db|-2-2-2-2-5-5-5-5-0-0-0-0-7-8-7-5|

eb|--------------------------------|
Bb|--------------------------------|
Gb|--------------------------------|
Db|-2-2-2-2-5-5-5-5-0-0-0-0-7-7-7-5|
Ab|-2-2-2-2-5-5-5-5-0-0-0-0-7-7-7-5|
Db|-2-2-2-2-5-5-5-5-0-0-0-0-7-7-7-5|

eb|--------------------------------|
Bb|--------------------------------|
Gb|--------------------------------|
Db|-2-2-2-2-5-5-5-5-0-0-0-0-7-8-7-5|
Ab|-2-2-2-2-5-5-5-5-0-0-0-0-7-8-7-5|
Db|-2-2-2-2-5-5-5-5-0-0-0-0-7-8-7-5|


Bridge:

eb|---------------------------------------------------|
Bb|---------------------------------------------------|
Gb|---------------------------------------------------|
Db|-0h2--0h2-0h2-0~~-0h2--0h2-0h2-5~~-0h2--0h2-0h2-0~~|
Ab|-0h2--0h2-0h2-0~~-0h2--0h2-0h2-5~~-0h2--0h2-0h2-0~~|
Db|-0h2--0h2-0h2-0~~-0h2--0h2-0h2-5~~-0h2--0h2-0h2-0~~|

eb|--------------|
Bb|--------------|
Gb|--------------|
Db|-7-7-7-8-8-8-8|
Ab|-x-x-x-x-x-x-x|
Db|-5-5-5-6-6-6-6|

eb|---------------------------------------------------|
Bb|---------------------------------------------------|
Gb|---------------------------------------------------|
Db|-0h2--0h2-0h2-0~~-0h2--0h2-0h2-5~~-0h2--0h2-0h2-0~~|
Ab|-0h2--0h2-0h2-0~~-0h2--0h2-0h2-5~~-0h2--0h2-0h2-0~~|
Db|-0h2--0h2-0h2-0~~-0h2--0h2-0h2-5~~-0h2--0h2-0h2-0~~|

eb|--------------|
Bb|--------------|
Gb|--------------|
Db|-7-7-7-8-8-8-8|
Ab|-x-x-x-x-x-x-x|
Db|-5-5-5-6-6-6-6|

eb|---------------------------------------------------|
Bb|---------------------------------------------------|
Gb|---------------------------------------------------|
Db|-0h2--0h2-0h2-0~~-0h2--0h2-0h2-5~~-0h2--0h2-0h2-0~~|
Ab|-0h2--0h2-0h2-0~~-0h2--0h2-0h2-5~~-0h2--0h2-0h2-0~~|
Db|-0h2--0h2-0h2-0~~-0h2--0h2-0h2-5~~-0h2--0h2-0h2-0~~|

eb|----------------|
Bb|----------------|
Gb|----------------|
Db|-7-7-7-8-8-8-8-9|
Ab|-x-x-x-x-x-x-x-x|
Db|-5-5-5-6-6-6-6-7|


Rest/Pre-Chorus:

eb|-------------|
Bb|-------------|
Gb|-------------|
Db|------5555-7\|
Ab|----------57\|
Db|-----------7\|
         *****


Chorus:

eb|--------------------------------|
Bb|--------------------------------|
Gb|--------------------------------|
Db|-2-2-2-2-5-5-5-5-0-0-0-0-7-7-7-5|
Ab|-2-2-2-2-5-5-5-5-0-0-0-0-7-7-7-5|
Db|-2-2-2-2-5-5-5-5-0-0-0-0-7-7-7-5|

eb|--------------------------------|
Bb|--------------------------------|
Gb|--------------------------------|
Db|-2-2-2-2-5-5-5-5-0-0-0-0-7-8-7-5|
Ab|-2-2-2-2-5-5-5-5-0-0-0-0-7-8-7-5|
Db|-2-2-2-2-5-5-5-5-0-0-0-0-7-8-7-5|

eb|--------------------------------|
Bb|--------------------------------|
Gb|--------------------------------|
Db|-2-2-2-2-5-5-5-5-0-0-0-0-7-7-7-5|
Ab|-2-2-2-2-5-5-5-5-0-0-0-0-7-7-7-5|
Db|-2-2-2-2-5-5-5-5-0-0-0-0-7-7-7-5|

eb|--------------------------------|
Bb|--------------------------------|
Gb|--------------------------------|
Db|-2-2-2-2-5-5-5-5-0-0-0-0-7-8-7-5|
Ab|-2-2-2-2-5-5-5-5-0-0-0-0-7-8-7-5|
Db|-2-2-2-2-5-5-5-5-0-0-0-0-7-8-7-5|


Outro:

eb|--------------------------------|
Bb|--------------------------------|
Gb|--------------------------------|
Db|-2-2-2-2-5-5-5-5-0-0-0-0-7-8-7-5|
Ab|-2-2-2-2-5-5-5-5-0-0-0-0-7-8-7-5|
Db|-2-2-2-2-5-5-5-5-0-0-0-0-7-8-7-5|

eb|--------------------------------|
Bb|--------------------------------|
Gb|--------------------------------|
Db|-2-2-2-2-5-5-5-5-0-0-0-0-7-7-7-5|
Ab|-2-2-2-2-5-5-5-5-0-0-0-0-7-7-7-5|
Db|-2-2-2-2-5-5-5-5-0-0-0-0-7-7-7-5|

eb|--------------------|
Bb|--------------------|
Gb|--------------------|
Db|-2-2-2-2-5-5-5-5-0~~|
Ab|-2-2-2-2-5-5-5-5-0~~|
Db|-2-2-2-2-5-5-5-5-0~~|

Disclaimer:

h = hammer-on
p = palm-muted
* = harmonic
~ = let notes ring
x = muted note
\ = slide down the fretboard


Any suggestions? Mail to: mikevanoord@hotmail.com
Tap to rate this tab
 
# A B C D E F G H I J K L M N O P Q R S T U V W X Y Z