Guitaretab - guitar tabs
Song name
# A B C D E F G H I J K L M N O P Q R S T U V W X Y Z

Puddle Of Mudd - Drift & Die tab

These are the Paul's parts,"paul phillips" already tabbed Wes' part and it sounds good...thanks

Verse (only Wes)

Chorus (with tremolo pedal)
|-0=------0=-----------------------------|
|-3=------3=-----------------------------|
|-2=------0=-----------------------------|
|-0=------x=-----------------------------|
|-0=------3=-----------------------------|
|-0=------3=-----------------------------|

Interlude (before verse) add dist.
|----------------------------------------|
|----10--------8--8----10--8-------------|
|-7------7----------7--------------------|
|----------------------------------------|
|----------------------------------------|
|----------------------------------------|

Outro-chorus acoustic
|-----------------------------|---------------------------|
|-------3---------------------|---------------------------|
|---2-2---------0--------0----|---------------------------|
|-0---------------------------|----3------0-----0--0------|
|---------3--3----2--2--------|-------2/3---2-2-----------|
|---------------------------3-|-3-------------------------|

if you think theres a fault,email to...nobody_cares@go2hell.com
[ Tab from: http://www.guitaretab.com/p/puddle-of-mudd/23395.html ]
Related for Drift & Die tab
Advertisement will be closed in 10 seconds