Song name
# A B C D E F G H I J K L M N O P Q R S T U V W X Y Z

Puddle Of Mudd - Drift & Die tab

I love tabs, gives you the clues when training your ear. I however noticed among some of the other tabs an easier way but sometimes not a full feel.

The tuning on this song is dropped half a step to Eflat. (if you want to play with the song)

For the accoustic part, I'm using the lower strings to give the sound a deeper feel. 

I am also showing you this with a dropped D for added depth. (that is the sixth string dropped down a whole step)

On the Second set of chords, you can get away with muffling (or not striking) the 5th and 6th strings to make life easier since the majority of the melody we hear on the guitar is being dictated by the 2nd and 3rd strings.

E---5-----5-------5-------5-----------------------------------------
B---6-----5-------6-------5----------6------6-------6-------6-------
G---7-----7-------7-------7----------5------4-------5-------4-------
D---7-----7-------7-------7----------5------5-------5-------5-------
A---5-----5-------5-------5----------5------5-------5-------5-------
D---0-----0-------0-------0----------0------0-------0-------0-------



This next section is the pre-chorus and chorus (as I call them). I've seen power chords used and that doesnt give a full sound. Try this instead. Notice the two last chords are BIG chords. This just gives a fuller sound, you can get away with just striking the 4th, 5th, and 6th strings. When using the distortion, you can still get away with this, but on his track, they do use power chords.

Accoustic 

E---3-----3----3-----3/---5----                         
B---2-----3----3-----6/---8----                         
G---3-----0----0-----5/---7----
D---3-----2----0-----3/---5----
A---0-----3----2-----3/---5----
D---0----------------3/---5----

Electric

E------------------------------                         
B------------------------------                         
G------------------------------
D---7-----5----5---------------
A---5-----3----2-----3/---5----
D--------------------3/---5----



Finally the Bridge Solo thingy. (buy a wah peddle or turn to your bass pickup and turn the tone down)

E-------------------------------------------------------
B-------------------------------------------------------
G--7--7--7---5--7---------------------------------------
D--7--7--7---5--7---------------------------------------
A--5--5--5---3--5---------------------------------------
D-------------------------------------------------------


E-------------------------------------------------------
B-------------------------------------------------------
G-------------------------------------------------------
D-------------------------------------------------------
A--------------3----------------3--5--3-----------------
D-0--3(h)-5(h)----0--3(h)--5(h)-------------------------

E-------------------------------------------------------
B-------------------------------------------------------
G--7--7--7---5--7---------------------------------------
D--7--7--7---5--7---------------------------------------
A--5--5--5---3--5---------------------------------------
D-------------------------------------------------------


E-------------------------------------------------------
B-------------------------------------------------------
G---------------5---------------5--7--5-----------------
D-3/--5/--7(h)-----3/--5/--7(h)-------------------------
A-------------------------------------------------------
D-------------------------------------------------------




Please note (h) are hammer ons and / are sliding to the next note.


Please contact me with any questions. These are just my interpretations and different fingerings can be used. 

luvac@zantor.net
Tap to rate this tab
# A B C D E F G H I J K L M N O P Q R S T U V W X Y Z