Song name
# A B C D E F G H I J K L M N O P Q R S T U V W X Y Z

Puddle Of Mudd - She Hates Me tab

 Intro
E---------------------------------
B---------------------------------
G----2-------3-----4----------5---  Repeat 17 times
D----3-------3-----5----------5---   
A------0-1-----0-5---0-3----3---0-
E-1--------------3----------------

 Pre-chorus
E-------------------------------------------
B-------------------------------------------
G-----------3---3-3---------------5-5---5-5-
D-3-3-3-----3---3-3-----5---5-5---5-5---5-5-  Repeat 4 times
A-3-3-3--0--1---1-1--0--5---5-5---3-3---3-3-
E-1-1-1--0-----------0--3---3-3-------------

 Chorus
E-------------------------------
B-------------------------------
G---------3-3-3---------5-5-5-5-
D-3-3-3---3-3-3---5-5-5-5-5-5-5-  Repeat 9 times
A-3-3-3-0-1-1-1-0-5-5-5-3-3-3-3-
E-1-1-1-0-------0-3-3-3---------
Tap to rate this tab
# A B C D E F G H I J K L M N O P Q R S T U V W X Y Z