Song name
# A B C D E F G H I J K L M N O P Q R S T U V W X Y Z

Puddle Of Mudd - She Hates Me tab

Puddle Of Mudd - She Hates Me
Tuned Down 1/2 Step

Intro
e-------------------------------------
B-------------------------------------
G-----2-------3-------4---------5-----
D-----3-------3-------5---------5-----
A--------0-1-----0-5-----0-3-3----0---
E--1---------------3------------------


Chorus
e-------------------------------------
B-------------------------------------
G----------3-3-3-----------5--5-5-5---
D--3-3-3---3-3-3---5-5-5---5--5-5-5---
A--3-3-3-0-1-1-1-0-5-5-5-0-3--3-3-3---
E--1-1-1-----------3-3-3--------------


Solo
e----------------------------------------------------------------
B----------------------------------------------------------------
G----------3-3-3-3---3---5-5-5-5----------3-3-3-3---3---5-5-5-5--
D--3-3-3-3---------5---5----------3-3-3-3---------5---5----------
A----------------------------------------------------------------
E----------------------------------------------------------------


e---------------------------------------------------------------------------------------------
B---------------------------------------------------------------------------------------------
G--------------15-15-15-15----15----17-17-17-17--------------15-15-15-15----15----17-17-17-17~
D--15-15-15-15-------------17----17--------------15-15-15-15-------------17----17-------------
A---------------------------------------------------------------------------------------------
E---------------------------------------------------------------------------------------------
Tap to rate this tab
# A B C D E F G H I J K L M N O P Q R S T U V W X Y Z