Guitaretab - guitar tabs
Song name
# A B C D E F G H I J K L M N O P Q R S T U V W X Y Z

Puddle Of Mudd - Never Change tab

-------------------------------------------------------------------------------
PUDDLE OF MUDD  Never Change
-------------------------------------------------------------------------------
Email: y.kumar@web.de

Tuning: Dropped D, flat




Intro/Verse

Guitar I
clean
eb|-------------------------------------|
Bb|-------3---3-3-3---------3---3-3-3-3-|
Gb|-------0---0-0-0---------2---2-2-2-0-|
Db|-2-----2---2-2-2---0-----0---0-0-0-0-|	repeat
Ab|-2----(2)----------0----(0)----------|
Db|-2-----------------0-----------------|

Guitar II
distorted
eb|-------------------------------------|
Bb|-------------------------------------|
Gb|-------------------------------------|
Db|-------------------------------------|       repeat
Ab|-------------------------------------|
Db|-2---2-2-2-2-2-----0---0--0-0-0-0----|



[ Tab from: http://www.guitaretab.com/p/puddle-of-mudd/30725.html ]
Chorus a
Guitar I
eb|------------------------------------------------|
Bb|------------------------------------------------|
Gb|------------------------------------------------|
Db|-10-10-10-10-10-10-10-10-10-10-10-10-10-10-10-10|
Ab|-7--7--7--7--7--7--7--7--8--8--8--8--8--8--8--8-|
Db|-7--7--7--7--7--7--7--7--7--7--7--7--7--7--7--7-|

eb|------------------------------------------------|
Bb|------------------------------------------------|
Gb|------------------------------------------------|
Db|-10-10-10-10-10-10-10-10-10-10-10-10-10-10-10-10|
Ab|-9--9--9--9--9--9--9--9--8--8--8--8--8--8--8--8-|
Db|-7--7--7--7--7--7--7--7--7--7--7--7--7--7--7--7-|

Guitar II
clean
eb|--5-------|
Bb|--5-------|
Gb|--5-------|
Db|--7-------| just play this chord along the whole chorus
Ab|--0-------|
Db|----------|




Chorus B
Both
distorted
eb|-------------------------------------------------|
Bb|-------------------------------------------------|
Gb|-5-------8-----------5-----------------------/8--|
Db|-5-------8-----------5-----------------------/8--|
Ab|-3-------6-----------5-----------------------/6--|
Db|-------------------------------------------------|
(strumming not indicated)
Related for Never Change tab