Song name
# A B C D E F G H I J K L M N O P Q R S T U V W X Y Z

Puddle Of Mudd - She Hates Me Acoustic tab

Hey guys this is puddle of mud - she fuckin hates me (acoustic) i hope you enjoy here it is.

chords used :

E|--0-----0-----2-----2-----|
B|--0-----2-----2-----4-----|
G|--1-----2-----3-----4-----|
D|--2-----2-----4-----4-----|
A|--2-----0-----4-----2-----|
E|--0-----0-----2-----x-----|
   E     A     F#    B

Here we gooo!!

Intro

E|------------------------------------------------|
B|------------------------------------------------|
G|-------1---------2----------3-------------4-----|
D|------2--0------2--0-------4--0----------4--0---|
A|-------------0---------------------2--2---------|
E|---0--------------------2-----------------------|


--------------------------------------------------|
--------------------------------------------------|
------1---------2----------3-------------4--------|
------2--0------2--0-------4--0----------4--0-----|
-------------0---------------------2--2-----------|
---0--------------------2-------------------------|


Verse


   Met a girl              Thought she was grand
E|--------------------------------------------------|
B|--------------------------------------------------|
G|------1---------2----------3-------------4--------|
D|------2--0------2--0-------4--0----------4--0-----|
A|-------------0---------------------2--2-----------|
E|---0--------------------2-------------------------|


   Fell in love            Found out first hand
--------------------------------------------------|
--------------------------------------------------|
------1---------2----------3-------------4--------|
------2--0------2--0-------4--0----------4--0-----|
-------------0---------------------2--2-----------|
---0--------------------2-------------------------|


   Went    well   for   a   week   or   two
--------------------------------------------------|
--------------------------------------------------|
------1---------2----------3-------------4--------|
------2--0------2--0-------4--0----------4--0-----|
-------------0---------------------2--2-----------|
---0--------------------2-------------------------|


   Then    it    all    came    unglued
--------------------------------------------------|
--------------------------------------------------|
------1---------2----------3-------------4--------|
------2--0------2--0-------4--0----------4--0-----|
-------------0---------------------2--2-----------|
---0--------------------2-------------------------|


   In a trap             trip i cant grip
--------------------------------------------------|
--------------------------------------------------|
------1---------2----------3-------------4--------|
------2--0------2--0-------4--0----------4--0-----|
-------------0---------------------2--2-----------|
---0--------------------2-------------------------|


   Never thought id be the one who'd slip
--------------------------------------------------|
--------------------------------------------------|
------1---------2----------3-------------4--------|
------2--0------2--0-------4--0----------4--0-----|
-------------0---------------------2--2-----------|
---0--------------------2-------------------------|


   Then i started         to realize
--------------------------------------------------|
--------------------------------------------------|
------1---------2----------3-------------4--------|
------2--0------2--0-------4--0----------4--0-----|
-------------0---------------------2--2-----------|
---0--------------------2-------------------------|


   I was living           one big lie
--------------------------------------------------|
--------------------------------------------------|
------1---------2----------3-------------4--------|
------2--0------2--0-------4--0----------4--0-----|
-------------0---------------------2--2-----------|
---0--------------------2-------------------------|


Chorus

she fuckin hates me.....
                                   Trust she Fuckin
|--------------------------------------------------|
|--------------------------------------------------|
|------1---------2----------3-------------4--------|
|------2--0------2--0-------4--0----------4--0-----|
|-------------0---------------------2--2-----------|
|---0--------------------2-------------------------|


   Hates me             La  La   La    La
--------------------------------------------------|
--------------------------------------------------|
------1---------2----------3-------------4--------|
------2--0------2--0-------4--0----------4--0-----|
-------------0---------------------2--2-----------|
---0--------------------2-------------------------|

   I tried too hard and she tore my feelings like I
--------------------------------------------------|
--------------------------------------------------|
------1---------2----------3-------------4--------|
------2--0------2--0-------4--0----------4--0-----|
-------------0---------------------2--2-----------|
---0--------------------2-------------------------|


 ..Had none      And ripped them away.....
--------------------------------------------------|
--------------------------------------------------|
------1---------2----------3-------------4--------|
------2--0------2--0-------4--0----------4--0-----|
-------------0---------------------2--2-----------|
---0--------------------2-------------------------|

   She was queen for about an hour....
------------------2-2-2--2--2-2-2-----------------|
----------2-2-2-2-2-2-2--4--4-4-4-----------------|
--1-1-1-1-2-2-2-2-3-3-3--4--4-4-4-----------------|
--2-2-2-2-2-2-2-2-4-4-4--4--4-4-4-----------------|
--2-2-2-2---------4-4-4--2--2-2-2-----------------|
------------------2-2-2--X--X-X-X-----------------|
   E E E E A A A A F#F#F# B  B B B


   After that shit got sour
------------------2-2-2--2--2-2-2-----------------|
----------2-2-2-2-2-2-2--4--4-4-4-----------------|
--1-1-1-1-2-2-2-2-3-3-3--4--4-4-4-----------------|
--2-2-2-2-2-2-2-2-4-4-4--4--4-4-4-----------------|
--2-2-2-2---------4-4-4--2--2-2-2-----------------|
------------------2-2-2--X--X-X-X-----------------|

   She took all I ever had
------------------2-2-2--2--2-2-2-----------------|
----------2-2-2-2-2-2-2--4--4-4-4-----------------|
--1-1-1-1-2-2-2-2-3-3-3--4--4-4-4-----------------|
--2-2-2-2-2-2-2-2-4-4-4--4--4-4-4-----------------|
--2-2-2-2---------4-4-4--2--2-2-2-----------------|
------------------2-2-2--X--X-X-X-----------------|


   No sign of guilt no feeling bad
------------------2-2-2--2--2-2-2-----------------|
----------2-2-2-2-2-2-2--4--4-4-4-----------------|
--1-1-1-1-2-2-2-2-3-3-3--4--4-4-4-----------------|
--2-2-2-2-2-2-2-2-4-4-4--4--4-4-4-----------------|
--2-2-2-2---------4-4-4--2--2-2-2-----------------|
------------------2-2-2--X--X-X-X-----------------|


Use the chords above for the next bit

In a trap, trip I cant grip
Never thought id be the one who'd slip
Then i started to realize
I was living one big lie.

Chorus

(for the next bit use the tab at the top of the page)

Thats my story, cant you see
Learned my lesson and so did she
now its over and I'm glad
(palm mute the chords from here) cause i'm a fool for all iv'e said

(use the chords till the end of the song)

Chorus

(outro)

lalalalalalalalalala
Trust
lalalalalalalalalala
trust
lalalalalalalalalala
and she tore my feelings like i had none
she fucking hates me!.


thanks guys any questions email me at saundersdaniel220594@yahoo.co.uk thanks enjoy!!
Tap to rate this tab
 
# A B C D E F G H I J K L M N O P Q R S T U V W X Y Z