Song name
# A B C D E F G H I J K L M N O P Q R S T U V W X Y Z

Puddle Of Mudd - Piss It All Away tab

*Please note alternative tuning

intro:

D#|-7-77-7--7-777-|    |-7--5--4h5p4--2-0-|
D#|-0-00-0--0-000-|    |-0--0--0-0-0--0-0-|
A#|-0-00-0--0-000-|    |-0--0--0-0-0--0-0-|
D#|-0-00-0--0-000-| x2 |-0--0--0-0-0--0-0-| x2
A#|-0----0--------|    |------------------|
D#|---------------|    |------------------|


verse/chorus:

D#|---------------------777-6-666-|     |---------------------777-6-666-|
D#|---------------------000-0-000-|     |---------------------000-0-000-|
A#|--0000--0000--0000---000-0-000-|     |--0000--0000--0000---000-0-000-|
D#|--0000--0000--0000---000-0-000-| x3  |--0000--0000--0000---000-0-000-| x1
A#|-00000-00000-00000-0-----------|     |-00000-00000-00000-0-----------|
D#|-5-----6-----7-----0-----------|     |-5-----3-----1-----0-----------|


Pre chorus:

D#|-0-00-0--0-000-|
D#|-0-00-0--0-000-|
A#|-0-00-0--0-000-|
D#|-0-00-0--0-000-| 
A#|-0-00-0--0-000-|
D#|-0-00-0--0-000-|


Bridge:

D#|----------------|-------------|---------------|-------------|
D#|----------------|-------------|---------------|-------------|
A#|-0-0-0--0-0-0-0-|-00000-00000-|-0-0-0--0-0--0-|-00000-00000-|
D#|-5/7-7--7/9-9-5-|-00000-00000-|-5/7-7--7/10-9-|-00000-00000-| 
A#|-0-0-0--0-0-0-0-|-00000-00000-|-0-0-0--0-0--0-|-00000-00000-|
D#|----------------|-55555-33333-|---------------|-55555-33333-|


Outro:

D#|-0-00-0--0-000-|
D#|-5-55-5--5-555-|
A#|-5-55-5--5-555-|
D#|-0-00-0--0-000-| 
A#|-0-00-0--0-000-|
D#|-0-00-0--0-000-|
Tap to rate this tab
 
# A B C D E F G H I J K L M N O P Q R S T U V W X Y Z