Song name
# A B C D E F G H I J K L M N O P Q R S T U V W X Y Z

Puddle Of Mudd - Control Acoustic tab

Title : Control (Acoustic)
Artist: Puddle of Mudd
Album : Come Clean

Tuning: C#, G#, C#, F#, A#, D# (Drop D half a step down)

 / - slide up

Main Riff

e|-0---0-0-0-0---0-0-0---0---0-0----------------|
B|-3---3-3-3-3---3-3-3---3---3-3----------------|
G|-2---2-2-2-2---2-2-2---2---2-2-5-5---5-5-3----|
D|-0---0-0-3-3---3-3-2---0---0-0-5-5---5-5-3----|
A|-0---0-0-3-3---3-3-2---3---3-3-5-5---5-5-3----|
E|-0---0-0-3-3---3-3-2-----------5-5---5-5-3----|

Intro - Guitar 2
e|--------------------------------|
B|--------------------------------|
G|-5/7---7-7-7-7-9-10---10-10/12--|
D|--------------------------------|
A|-3/5---5-5-5-5-7-8-----8--8/10--|
E|--------------------------------|

e|--------------------------------|
B|--------------------------------|
G|-7/9---9-9-9-9-5-5---5-5/7------|
D|--------------------------------|
A|-5/7---7-7-7-7-3-3---3-3/5------|
E|--------------------------------|

e|--------------------------------|
B|--------------------------------|
G|-5/7---7-7-7-7-9-10---10-10/12--|
D|--------------------------------|
A|-3/5---5-5-5-5-7-8-----8--8/10--|
E|--------------------------------|

e|--------------------------------|
B|--------------------------------|
G|-12---12-12-12-10-10---10-10----|
D|--------------------------------|
A|-10---10-10-10--8--8----8--8----|
E|--------------------------------|

Breakdown 1 (after 2nd chorus)
e|-0---0---0---0-1-0---|
B|-3---3-2-3-----------|
G|-2---2---2-----------| x 3
D|-0---0---0-----------|
A|-0---0---0-----------|
E|-0---0---0-----------|

e|-0---0---0---0---0-0-0---|
B|-3---3-2-3---3---3-3-3---|
G|-2---2---2---2---2-2-2---|
D|-0---0---0---0---0-0-0---|
A|-0---0---0---0---0-0-0---|
E|-0---0---0---0---0-0-0---|

Breakdown 2 ()
e|-0---0-0-0---0-0-0-0-0---|
B|-3---3-3-3---3-3-3-3-3---|
G|-2---2-2-2---2-2-2-2-2---|
D|-0---0-0-0---0-3-3-3-3---|
A|-0---0-0-0---0-3-3-3-3---|
E|-0---0-0-0---0-3-3-3-3---|

As far as I can tell, the majority of the song (Intro, Verse and Chorus) are the same
set of chords. Because of this I have just labelled it 'Main Riff'. The only time the main
riff isn't played is during the breakdown after the second chorus but even then it's 
just a simplified version. I have left out some of the small changes in the breakdown (when
it palm mutes etc.) for the sake of making the tab more readable.

It's important to note that, at least to me, the song sounds better if you don't stick
rigidly to the tab. Add some extra strums and experiment ;)

To come up with this tab I watched some of the cover by 'Dragon2712' on youtube so he
deserves some credit for this. Couldn't get the exact notes because of the video quality
but it gave me enough of an idea that it wouldn't feel right not mentioning.

I did this tab over the space of half an hour, only learning it myself about half an
hour before or during for certain parts, so there are bound to be some mistakes but since
there weren't any other tabs for the acoustic version of the song I decided to upload 
regardless. Please let me know if you find any errors and I'll change them as soon as I 
get a chance.
Tap to rate this tab
 
# A B C D E F G H I J K L M N O P Q R S T U V W X Y Z