Song name
# A B C D E F G H I J K L M N O P Q R S T U V W X Y Z

Puddle Of Mudd - Drift And Die Acoustic tab

This is the solo of Drift and Die played on the Striking That Familiar Chord DVD by
Puddle of Mudd. He plays it on an acoustic guitar so the bends may be a little hard. I spent
a long time listening in slow motion and learning this, so it is 100% accurate, I 
guarantee. He also plays it tuned 1/2 down, but this tab is used for guitars in standard
tuning. Really easy once you get the hang of it

e|--9--9--7--9~~~~9--7--7-------------9--7--------------6-------------|
B|------------------------------7--9-------9--8-7-------7-------------|
G|------------------------------------------------9--6--9-------------|
D|--------------------------------------------------------------------|
A|--------------------------------------------------------------------|
E|--------------------------------------------------------------------|

e|----------------------------------------------12--------------------|
B|-9----9---------------------------12b14-12b14---12b14b14b14-14r12--|
G|-9-11-9--11-9-11---9-9911-1111-13--------------------------------13|
D|---------11-9-11----------------------------------------------------|
A|--------------------------------------------------------------------|
E|--------------------------------------------------------------------|

e|-13b1414141414b1515r------------------------------------------------|
B|--------------------14----------------------------------------------|
G|--------------------------------------------------------------------|
D|--------------------------------------------------------------------|
A|--------------------------------------------------------------------|
E|--------------------------------------------------------------------|

e|-12-12-9----9-9-----------------------------------9-------9---------|
B|---------12------12-9-12-12---------------9------9-------9----------|
G|-----------------------------13-11-13-11b---11b13---11b13-----------|
D|--------------------------------------------------------------------|
A|--------------------------------------------------------------------|
E|--------------------------------------------------------------------|

e|--------------------------------------------------------------------|
B|-12-9---9-----------------------------------------------------------|
G|-----11----11b13-11--9---11----9-9h119h11--9----9---6-4-6-4---------|
D|-----------------------11---11---------------11--------------s4-3---|
A|--------------------------------------------------------------------|
E|--------------------------------------------------------------------|

*Interlude solo*

e|---------------6-7-6h7p6--6----------------------------------------|
B|----------6-7-9--------------9-7--6-7-6h7p6--7-6-7-7h9--------------|
G|------6-8-----------------------------------------------------------|
D|--6-8---------------------------------------------------------------|
A|--------------------------------------------------------------------|
E|--------------------------------------------------------------------|

e|-------------------------------------------------------------------|
B|-9-10-12-10-9-10-9h10p9---------------------------------------------|
G|------------------------11-10-11-10--11-10b12--------11-10b12-------|
D|----------------------------------------------11-9~~~---------11-9--|
A|--------------------------------------------------------------------|
E|--------------------------------------------------------------------|

e|-------------------------------------------------------------------|
B|-----------------------------------------------9-9-10-10-12-12b14~~~|
G|-11-10b12------11-10b12------------10-10-11-11----------------------|
D|----------11-9----------11-9-11~~~----------------------------------|
A|--------------------------------------------------------------------|
E|--------------------------------------------------------------------|

e|-131313-----------------------12-----------------------------------|
B|--------14r12-----12b14-12b14-----14r12~~~--------------------------|
G|--------------13----------------------------------------------------|
D|--------------------------------------------------------------------|
A|--------------------------------------------------------------------|
E|--------------------------------------------------------------------|

e|------------6-7-6-----6--------------------------------------------|
B|-------6-7-9-------9-7---9-7-6---6----------------------------------|
G|-6-7-8-------------------------8------------------------------------|
D|--------------------------------------------------------------------|
A|--------------------------------------------------------------------|
E|--------------------------------------------------------------------|

e|-------------------------------------------------------------------|
B|-12-12p9----9--12-12p9----9-----------------------------------------|
G|---------11------------11---11-10-8-9-8h9p8-------------------9~~~--|
D|--------------------------------------------11-9-11-9-s11~~~--------|
A|--------------------------------------------------------------------|
E|--------------------------------------------------------------------|

e|-------------------------------------------------------------------|
B|--------------------------------------------------------------------|
G|--------------------------------------------------------------------|
D|-s4-2---4--2-4-2------------2b-2b-----------------------------------|
A|------4----------4~~~---2-4-------4p2--4-s4-4-4~~~-4-2s4-4-2s4-4----|
E|----------------------4---------------------------------------------|

e|-------------------------------------------------------------------|
B|--------------------------------------------------------------------|
G|--------------------------------------------------------------------|
D|-2-2~~~-------------------------------------------------------------|
A|--------------------------------------------------------------------|
E|--------4----0~~~---------------------------------------------------|

*last part played before returning to chorus*

e|-------------------------------------------------------------------|
B|--9---9---9--------9---9--------9--------9----8---------------------|
G|--8b9-8b9-8b9r8-6-8b9-8b10~~~--10r8-6-8-8-11---8-------------------|
D|--------------------------------------------------------------------|
A|-----------------------------------------------------------11s------|
E|--------------------------------------------------------------------|
Tap to rate this tab
 
# A B C D E F G H I J K L M N O P Q R S T U V W X Y Z