Song name
# A B C D E F G H I J K L M N O P Q R S T U V W X Y Z

Puddle Of Mudd - Puddle Of Mudd tab

Man, this song was so hard to learn!!! but its ez once you learn how to do the intro and 
solo!!!!!! if it sux, just email me at dakodajax@hotmail.com
P.S. Its an instruMENTAL song, ecxept it has like 6 words in the song.


1-------0-0-0-5s3-3s5-5s3-3s5s7---------------------|"Puddle"
2------5--5--5-----------------4-2-7-5-4-2-0-5-4-1--|
3-----0---0---0----------------------------5--------|
4----5----5----5------------------------------------|
5---0-----0-----0-----------------------------------|
6--5------5------5----------------------------------|

1--------------------------------------------4------|"of"
2-------------------------------------------5--x10--|
3--3-7-3-8-3-9--3-8-4-9--4-8-3-8-3-9----------------|
4--4-8-4-9-4-10-4-9-5-10-5-9-4-9-3-10---------------|
5---------------------------------------------------|
6-------------------------------------22------------|


SOLO TIME!!!!

1---------------------------------------------------|
2---------------------------------------------------|
3---------------------------------------------------|
4----5-------13-------------------------------------|
5---5-5----13--13-----------------------------------|
6--4---4-12------12-13-14-15-16-17-18-19-20-21-22---| "MUDD!!!"


1--------------------------------------------4------|"Puddle"
2-------------------------------------------5--x15--|
3--3-7-3-8-3-9--3-8-4-9--4-8-3-8-3-9----------------|
4--4-8-4-9-4-10-4-9-5-10-5-9-4-9-3-10---------------|
5---------------------------------------------------|
6-------------------------------------22------------|

1-------0-0-0-5s3-3s5-5s3-3s5s7---------------------|"of"
2------5--5--5-----------------4-2-7-5-4-2-0-5-4-1--|
3-----0---0---0----------------------------5--------|
4----5----5----5------------------------------------|
5---0-----0-----0-----------------------------------|
6--5------5------5----------------------------------|

1--2------6-6----------------------19---------------|"MUDDD!!!!!!!!!"
2--3-----5---5--------------------------------------|
3--6----4-----4-------------------------------------|
4--7---3-------3-----------------------1-4-8-1-8-1--|
5--3--2---------2-----------------------------------|
6--8-1-----------1-4-5-9-3-4-5-7-9-8----------------|


"" = singing
s= slides
Tap to rate this tab
# A B C D E F G H I J K L M N O P Q R S T U V W X Y Z