Song name
# A B C D E F G H I J K L M N O P Q R S T U V W X Y Z

Puff Daddy - Ill Be Missing You tab

-----------------------------|
---------------0-------------|
-------------------2---------|
-------------4---------------|
-------------------2---------|
-----------------------------|

-------------------2---------|
-------------4---------------|
--------6--------------------|
-------------------2---------|
-----------------------------|
-----------------------------|
Tap to rate this tab
 
# A B C D E F G H I J K L M N O P Q R S T U V W X Y Z