Song name
# A B C D E F G H I J K L M N O P Q R S T U V W X Y Z

Puff Daddy - Missing You tab

Whole Song
E-----------------------------------------------------------------|
B-----------------------------------------------------------------|
G-----------------------------------------------------------------|
D-----------------------------------------------------------------|
A-----0-0-2-2-0-0-----0-0-2-2-0-0---------------------------------|
E-3-3-------------3-3-------------0-0-2-2-3-3-2-2-0-0-2-2-3-3-2-2-|

E-----------------------------------------------------:|
B-----------------------------------------------------:|
G-----------------------------------------------------:|
D-----------------------------------------------------:|
A-----5--3--0------7--5--3-------0-0-2-2-0-0---0-3-2-0:|
E-3-3----------3-3-----------3-3-------------3--------:|

- Add notes: Just play this the entire song
- Code: ":" = Repeat
Tap to rate this tab
 
# A B C D E F G H I J K L M N O P Q R S T U V W X Y Z