Song name
# A B C D E F G H I J K L M N O P Q R S T U V W X Y Z

Puffy Amiyumi - Nagaiki Shitene tab

-------------------------------------------------------------------------------
			     Nagaiki Shitene - Puffy AmiYumi
-------------------------------------------------------------------------------
Tabbed by: Jacob Belisario
Email: J_dawg2992@msn.com

Tuning: Standard EADGBe


Intro
e|-------------|
B|----12-------|
G|-------12----|(Can be played as harmonics)
D|-12-------12-|   
A|-------------|
E|-------------|


Verse 1
e|---------------------|
B|-x12--x12--x12--x12--|
G|-x12--x12--x12--x12--|}4x
D|-x12--x12--x12--x12--|
A|---------------------|
E|---------------------|

e|---------------------|
B|-x7--x9--x12--x12----|
G|-x7--x9--x12--x12----|
D|-x7--x9--x12--x12----|
A|---------------------|
E|---------------------|
Repeat Verse 1


e|---------------|
B|----------11---|
G|-------12------|
D|----12---------|
A|-10------------|
E|---------------|

Verse 2 & 3 same as verse 1

End Riff
e|---------------|
B|----------12---|
G|-------12------|
D|----12---------|
A|-10------------|
E|---------------|
Use wammy bar

Thats all... Im 99.9% sure that its correct... please e-mail me for any corrections or comments...
Tap to rate this tab
# A B C D E F G H I J K L M N O P Q R S T U V W X Y Z