Guitaretab - guitar tabs
Song name
# A B C D E F G H I J K L M N O P Q R S T U V W X Y Z

Pug Jelly - Give Or Take tab

Song: Give or take
Band: Pug Jelly
Tabbed By Muhammad Faizal
m_5zal28@hotmail.com

========================
     GUITAR 1's PART
========================

OPENING(GUITAR 2 ONLY AT THE START)

INTRO(X2)
e|---------------------------------------
B|---6-6h7-6--6-6h7-6---6-6h7-6-9-767676-
G|-66-------66--------66-----------------
D|---------------------------------------
A|---------------------------------------
E|---------------------------------------

VERSE(X4)
e|---------------------------------------
B|---6-6h7-6--6-6h7-6---6-6h7-6-9-767676-
G|-66-------66--------66-----------------
D|---------------------------------------
A|---------------------------------------
E|---------------------------------------

CHORUS(X2)
e|-6h7-6h7-6h7-6h7-6h7-6h7-6h7-6-------66666--------
B|------------------------------9-7-6-7-------99-7~-
G|--------------------------------------------------
D|--------------------------------------------------
A|--------------------------------------------------
E|--------------------------------------------------

CHORUS CONT'D
e|-6h7-6h7-6h7-6h7-6h7-6h7-6h7-6--------------------
B|------------------------------9~------------------
G|--------------------------------------------------
D|--------------------------------------------------
A|--------------------------------------------------
E|--------------------------------------------------

INTRO 
e|------------------------------------------------------------------
B|---6-6h7-6--6-6h7-6---6-6h7-6-9-767676---6-6h7-6--6-6h7-6--6-6h7--
G|-66-------66--------66-----------------66-------66-------66-------
D|------------------------------------------------------------------
A|------------------------------------------------------------------
E|------------------------------------------------------------------
[ Tab from: http://www.guitaretab.com/p/pug-jelly/131226.html ]
(DRUMS PART1)
VERSE
CHORUS
CHORUS CONT'D
(DRUMS PART2)
CHORUS
CHORUS CONT'D

========================
     GUITAR 2's PART
========================

USES DISTORION THROUGHOUT THE SONG

OPENING(X2)
e|----------------------------------------------------
B|----------------------------------------------------
G|----------------------------------------------------
D|----11---11--11---11---11-11---8---8-8--------------
A|-9-9--9-9---9--8-8--8-8--8--6-6-6-6-6----11---11-11-
E|--------------------------------------9-9--9-9--9---

INTRO(X2)
e|------------------------
B|------------------------
G|-11----11----8----------
D|-11-X6-11-X6-8-X6-11----
A|-9-----8-----6----11-X6-
E|------------------9-----

VERSE(X4)
e|------------------------
B|------------------------
G|-11----11----8----------
D|-11-X6-11-X6-8-X6-11----
A|-9-----8-----6----11-X6-
E|------------------9-----

CHORUS(X2)
e|--------------------------------------------------------------------
B|--------------------------------------------------------------------
G|--------------------------------------11--11-1111-11111-88888888888-
D|-999999999999-11111111111111111111111-11--11-1111-11111-88888888888-
A|-999999999999-11111111111111111111111-9---9--8-8--8-8-8-66666666666-
E|-777777777777-9-9-9-9-9-9-9-9-9-9-9-9-------------------------------

CHORUS CONT'D
e|--------------------------------------
B|--------------------------------------
G|--------------------------------------
D|-999999999999-11~---------------------
A|-999999999999-11~---------------------
E|-777777777777-9-~---------------------

INTRO
(DRUMS PART1)
VERSE
CHORUS
CHORUS CONT'D

CHORUS CONT'D  e|------
FOR THIS PART  B|------
END WITH       G|-11/--
               D|-11/--
               A|-9-/--
               E|------

(DRUMS PART2)
CHORUS
CHORUS CONT'D
Related for Give Or Take tab