Song name
# A B C D E F G H I J K L M N O P Q R S T U V W X Y Z

Pug Jelly - Toms Leaving tab

Tom's Leaving
Pug Jelly

standard tuning

so u're leaving...
guitar 1&2
e|--------------------------
B|--------------------------
G|------677777--55555555----
D|77777-677777--55555555-7--
A|77777-455555--77777777-7--
E|55555------------------5--

broken hearted...
guitar 1
e|--------------------------
B|--------------------------
G|------677777--55555555----
D|77777-677777--55555555-7--
A|77777-455555--77777777-7--
E|55555------------------5--

guitar 2
e|---------------------------------------
B|---------------------------------------
G|------677777--55555555-----------------
D|77777-677777--55555555-----------------
A|77777-455555--77777777-0-2-4-20-02-4-2-
E|55555----------------------------------

ten thousand miles..
guitar 1&2
e|--------------------------------------
B|--------------------------------------
G|77--99--66---1111--99---77--99-66666--
D|77--99--66---1111--99---77--99-66666--
A|55--77--44----9-9--77---55--77-44444--
E|--------------------------------------
                                *(pick slide)

so take your shoes off..
guitar1
e|-----------------------------------------
B|-----------------------------------------
G|77777-99999-66666-1111-99-77777-99999----
D|77777-99999-66666-1111-99-77777-99999-7--
A|55555-77777-44444--9-9-77-55555-77777-7--
E|--------------------------------------5--
                                       
                   
guitar2
e|------------------------------------------------------
B|------------------------------------------------------
G|77777-99999-66666-1111-99-77777-99999-----------------
D|77777-99999-66666-1111-99-77777-99999-----------------
A|55555-77777-44444--9-9-77-55555-77777-0-2-4-20-02-4-2-
E|------------------------------------------------------


pam \m/
slap_me@pugjelly.tk
http://www.pugjelly.tk
get more Pug Jelly's tabs there !
Tap to rate this tab
# A B C D E F G H I J K L M N O P Q R S T U V W X Y Z