Guitaretab - guitar tabs
Song name
# A B C D E F G H I J K L M N O P Q R S T U V W X Y Z

Pug Jelly - Give Or Take Acoustic tab

Tab:Give Or Take (acoustic)
By: Pug Jelly
Copyright by m_5zal28@hotmail.com

The start is muted to the rythm

VERSE

    we used to go for coffee...
1st|---------------------------
2nd|---99----99----99----9999--
3rd|---99----99----99----9999--
4th|---99----99----99----9999--
5th|-7-77-76-66-6--xx----xxxx--
6th|-------------9-99-97-7777--

CHORUS

    things would be the same....
1st|-5-----7-----
2nd|-5-----7-----
3rd|-6-----8-----
4th|-7-----9-----
5th|-7-----9-----
6th|-5-----7----- (listen to song for strumming pattern)

    you're gone and im here to stay...
1st|-----------------
2nd|-9999-9999-9-----
3rd|-9999-9999-9-----
4th|-9999-9999-9-----
5th|-7777-6666-x-----
6th|-----------9-x8--

    im going away...
1st|-5-----7-----
2nd|-5-----7-----
3rd|-6-----8-----
4th|-7-----9-----
5th|-7-----9-----
6th|-5-----7----- 
    
    my feelings will not change
1st|-----------------
2nd|-9999-9999-9-----
3rd|-9999-9999-9-----
4th|-9999-9999-9-----
5th|-7777-6666-x-----
6th|-----------9-x8--
   
    friends forever, give or take
1st|-5-----7-----
2nd|-5-----7-----
3rd|-6-----8-----
4th|-7-----9-----
5th|-7-----9-----
6th|-5-----7----- (listen for strum pattern)
[ Tab from: http://www.guitaretab.com/p/pug-jelly/47824.html ]
1st|---------------------------
2nd|---99----99----99----9999--
3rd|---99----99----99----9999--
4th|---99----99----99----9999--
5th|-7-77-76-66-6--xx----xxxx--
6th|-------------9-99-97-7777-- x2 
                       
                       |-9--
                       |-9--
                       |-9--
                       |-x--
                       |-7--

Muted Rythm(same as the start.

PLAY VERSE

CHORUS

things would be the same....
1st|-5-----7-----
2nd|-5-----7-----
3rd|-6-----8-----
4th|-7-----9-----
5th|-7-----9-----
6th|-5-----7----- (listen to song for strumming pattern)

    you're gone and im here to stay...
1st|-----------------
2nd|-9999-9999-9-----
3rd|-9999-9999-9-----
4th|-9999-9999-9-----
5th|-7777-6666-x-----
6th|-----------9-x8--

    im going away...
1st|-5-----7-----
2nd|-5-----7-----
3rd|-6-----8-----
4th|-7-----9-----
5th|-7-----9-----
6th|-5-----7----- (listen to song for strumming pattern)
    
    my feelings will not change
1st|-----------------
2nd|-9999-9999-9-----
3rd|-9999-9999-9-----
4th|-9999-9999-9-----
5th|-7777-6666-x-----
6th|-----------9-x8--
   
    friends forever, give or...
1st|-5-----7-----
2nd|-5-----7-----
3rd|-6-----8-----
4th|-7-----9-----
5th|-7-----9-----
6th|-5-----7----- (listen for strum pattern)

ENDING

    take my life away...
1st|------------
2nd|-99-99-9999-
3rd|-99-99-9999-
4th|-99-99-9999-
5th|-77-66-xxxx-
6th|-------9999- 
    
    everythings changing now...
1st|-5-----7-----
2nd|-5-----7-----
3rd|-6-----8-----
4th|-7-----9-----
5th|-7-----9-----
6th|-5-----7----- (listen for strum pattern)

repeat ending x3

please listen to the song to be more exact.....so have fun playing this song...
Related for Give Or Take Acoustic tab