Guitaretab - guitar tabs
Song name
# A B C D E F G H I J K L M N O P Q R S T U V W X Y Z

Pug Jelly - Ransom Letter tab

Tabbed by: Kelvinlim (frozing_cows@hotmail.com)
Artist: Pug Jelly
Song: Ransom Letter



Intro
E|------------------------------------------------------------||
B|------------------------------------------------------------||
G|----------888-666-555555---888-666-555555---888-666—555555--||
D|--7777777-888-666-555555---888—666—555555—--888-666—555555--||
A|--7777777-666-444-333333—--666-444—333333---666-444-333333--||
E|--5555555---------------------------------------------------||

1st Verse
  So you stole my heart…
E|-------------------------------------------------------------||
B|-------------------------------------------------------------||
G|-------------------------------------------------------------||
D|---7---------------6---------------4---------------2---------||
A|---7-[x12]---------6-[x12]---------4-[x12]---------2-[x12]---||
E|---5---------------4---------------2---------------0---------||

                   
E|-------------------------------------------------------------||
B|-------------------------------------------------------------||
G|-------------------------------------------------------------||
D|---7---------------6---------------4---------------2~--------||
A|---7-[x12]---------6-[x12]---------4-[x12]---------2~[x13]---||
E|---5---------------4---------------2---------------0~--------||


Chorus
E|-------------------------------------------------------------||
B|-------------------------------------------------------------||
G|-------------------------------------------------------------||
D|---7--------------6----------------4¬--------------2----------||
A|---7-[x6] --------6-[x6]-----------4-[x6]---------2-[x6]-----||
E|---5--------------4----------------2--------------0----------||

E|-------------------------------------------------------------||
B|-------------------------------------------------------------||
G|------------------6-------------------------------4----------||
D|---7--------------6-[x6]-----------4¬--------------4-[x6]-----||
A|---7-[x6] --------4----------------4-[x6]---------2----------||
E|---5-------------------------------2-------------------------||

E|-------------------------------------------------------------||
B|-------------------------------------------------------------||
G|------------------6-------------------------------4----------||
D|---7--------------6-[x6]-----------4¬--------------4-[x6]-----||
A|---7-[x6] --------4----------------4-[x6]---------2----------||
E|---5-------------------------------2-------------------------||

E|-------------------------------------------------------------||
B|-------------------------------------------------------------||
G|-------------------------------------------------------------||
D|---7--------------6------------------------------------------||
A|---7-[x6] --------6-[x6]-------------------------------------||
E|---5--------------4------------------------------------------||

2nd Verse
  I can’t let you walk away…                               so…
E|------------------------------------------------------------||
B|------------------------------------------------------------||
G|------------------------------------------------------------||
D|---7---------------6---------------4---------------2-----X--||
A|---7-[x12]---------6-[x12]---------4-[x12]---------2-[x3]X--||
E|---5---------------4---------------2---------------0-----X--||
PM*                                                        *
                   
E|-------------------------------------------------------------||
B|-------------------------------------------------------------||
G|-------------------------------------------------------------||
D|---7---------------6---------------4---------------2~--------||
A|---7-[x12]---------6-[x12]---------4-[x12]---------2~[x13]---||
E|---5---------------4---------------2---------------0~--------||




Chorus
E|-------------------------------------------------------------||
B|-------------------------------------------------------------||
G|-------------------------------------------------------------||
D|---7--------------6----------------4¬--------------2----------||
A|---7-[x6] --------6-[x6]-----------4-[x6]---------2-[x6]-----||
E|---5--------------4----------------2--------------0----------||

E|-------------------------------------------------------------||
B|-------------------------------------------------------------||
G|------------------6-------------------------------4----------||
D|---7--------------6-[x6]-----------4¬--------------4-[x6]-----||
A|---7-[x6] --------4----------------4-[x6]---------2----------||
E|---5-------------------------------2-------------------------||
[ Tab from: http://www.guitaretab.com/p/pug-jelly/53337.html ]
E|-------------------------------------------------------------||
B|-------------------------------------------------------------||
G|------------------6-------------------------------4----------||
D|---7--------------6-[x6]-----------4¬--------------4-[x6]-----||
A|---7-[x6] --------4----------------4-[x6]---------2----------||
E|---5-------------------------------2-------------------------||

E|-------------------------------------------------------------||
B|-------------------------------------------------------------||
G|-------------------------------------------------------------||
D|---7--------------6----------------7-------------------------||
A|---7-[x6] --------6-[x6]-----------7-[x25]-------------------||
E|---5--------------4----------------5-------------------------||


Bridge
  I hear our song, it keeps playing on the radio…
E|-------------------------------------------------------------||
B|-------------------------------------------------------------||
G|-------------------------------------------------------------||
D|---5-5-5--5-5-5--4-4-4--4-4-4--2--------¬---------------------||
A|---5-5-5--5-5-5--4-4-4--4-4-4--2-[x24]-----------------------||
E|---3-3-3--3-3-3--2-2-2--2-2-2--0-----------------------------||
PM*    * *    * *    * *    * *  

E|-------------------------------------------------------------||
B|-------------------------------------------------------------||
G|-------------------------------------------------------------||
D|---5-5-5--5-5-5--4-4-4--4-4-4--2--------¬---------------------||
A|---5-5-5--5-5-5--4-4-4--4-4-4--2-[x24]-----------------------||
E|---3-3-3--3-3-3--2-2-2--2-2-2--0-----------------------------||
PM*    * *    * *    * *    * *  

E|-------------------------------------------------------------||
B|-------------------------------------------------------------||
G|-------------------------------------------------------------||
D|---5-5-5--5-5-5--4-4-4--4-4-4--2--------¬---------------------||
A|---5-5-5--5-5-5--4-4-4--4-4-4--2-[x24]-----------------------||
E|---3-3-3--3-3-3--2-2-2--2-2-2--0-----------------------------||
PM*    * *    * *    * *    * *  

E|-------------------------------------------------------------||
B|-------------------------------------------------------------||
G|-------------------------------------------------------------||
D|---5-5-5--5-5-5--4-4-4--4-4-4—-2~-------¬---------------------||
A|---5-5-5--5-5-5--4-4-4--4-4-4—-2~----------------------------||
E|---3-3-3--3-3-3--2-2-2--2-2-2—-0~----------------------------||
PM*    * *    * *    * *    * *  

Chorus
  …up, girl? Things haven’t changed a bit since we last met.
E|-------------------------------------------------------------||
B|-------------------------------------------------------------||
G|-------------------------------------------------------------||
D|---7--------------6------------¬------------------------------||
A|---7-[x12] -------6—[x12]------------------------------------||
E|---5--------------4------------------------------------------||

                                   I bet my bottom dollar…
E|----------------------------------------------------------------||
B|----------------------------------------------------------------||
G|------------------6-6-6-6-6-6-X-----------------4-4-4-4-4-4-X---||
D|---7-7-7-7-7-7-X--6-6-6-6-6-6-¬X--4-4-4-4-4-4-X--4-4-4-4-4-4-X---||
A|---7-7-7-7-7-7-X--4-4-4-4-4-4-X--4-4-4-4-4-4-X--2-2-2-2-2-2-X---||
E|---5-5-5-5-5-5-X-----------------2-2-2-2-2-2-X------------------||
PM*          * * *          * * *          * * *          * * *

  …best girl that I ever had…
E|-----------------------------------------------------------||
B|-----------------------------------------------------------||
G|------------------6-----------------------------4----------||
D|---7--------------6-[x6]---------4¬--------------4-[x6]-----||
A|---7-[x6] --------4--------------4-[x6]---------2----------||
E|---5-----------------------------2-------------------------||

E|-------------------------------------------------------------||
B|-------------------------------------------------------------||
G|-------------------------------------------------------------||
D|---7--------------6--------------7---------------------------||
A|---7-[x6] --------6-[x6]---------7-[x4]----------------------||
E|---5--------------4--------------5---------------------------||

Ending
    What’s up…
E|-----------------------------------------------------||
B|-----------------------------------------------------||
G|---888-666-555555---888-666-555555---888-666—555555--||
D|---888-666-555555---888—666—555555—--888-666—555555--||
A|---666-444-333333—--666-444—333333---666-444-333333--||
E|-----------------------------------------------------||



+ END +

Related for Ransom Letter tab