Song name
# A B C D E F G H I J K L M N O P Q R S T U V W X Y Z

Puggy - Madame Louise tab

Song: MADAME LOUISE

Artist: Puggy


by Bruno Mucciolo 

(24.02.2008)


Dedicated to Mr. Arnaud Roland, who introduced Puggy to me while working together in London.
Thanks mate!  

Please make your comments. I am sure we can improve this tab.

____________
TABLATURE: 
____________

TDrop (D) Tuning: DADGBE


INTRO

E|--------------------------------------------------------------------------------------------|
B|----7-7h8h7--10h8h7--7h8h7------7-7h8h7-10h8h7--7h8h7-------7-7h8h7-10h8h7--7h8h7----7----8-|
G|----7-7------7-------7----------7-7-----7-------7-----------7-7-----7-------7--------7----7-|
D|-----------------------------8---------------------------9---------------------------0------|
A|------------------------------------------------------------------------------------------0-|
D|-0------------------------------------------------------------------------------------------|

E|--------------------------------------------------------------------------------------------|
B|-7--7-7h8h7--10h8h7--7h8h7------7-7h8h7-10h8h7--7h8h7-------7-7h8h7-10h8h7--7h8h7----7----8-|
G|-7--7-7------7-------7----------7-7-----7-------7-----------7-7-----7-------7--------7----7-|
D|-0---------------------------8---------------------------9---------------------------0------|
A|-0----------------------------------------------------------------------------------------0-|
D|-0------------------------------------------------------------------------------------------|


Final-INTRO
E|------------------------------------------------------------------|
B|----/7-7h8h7------/7-7h8h7-------/7-7h8h7----7h8h7----------------|
G|----/7-7----------/7-7-----------/7-7--------7-7---9p7-7h9h7---7--|
D|-0-------------0--------------0-----------------------------9-----|
A|-0-------------0--------------0-----------------------------------|
D|-0-------------0--------------0-----------------------------------|



VERSE

E|--------------------------------------------------------------------------------------------|
B|-7--7-7h8h7--10h8h7--7h8h7------7-7h8h7-10h8h7--7h8h7-------7-7h8h7-10h8h7--7h8h7----7----8-|
G|-7--7-7------7-------7----------7-7-----7-------7-----------7-7-----7-------7--------7----7-|
D|-0---------------------------8---------------------------9---------------------------0------|2x
A|-0----------------------------------------------------------------------------------------0-|
D|-0------------------------------------------------------------------------------------------|


E|---0---0-------|
B|---8---10------|
G|---7---9-------|
D|---5---7-------|
A|---5---7-------|
D|---5---7-------|


CHORUS
E|---5----4----5----8--7----|    |---0----0----0----8----0----8--7-----|
B|---5----7----8----11-10---|    |---0----0----0----11---8----11-10----|
G|---7----6----7----10-9----|2x  |---7----7----4----10---7----10-9-----|
D|---7----4----5----8--7----|    |---7----7----4----8----5----8--7-----|
A|---5----4----5----8--7----|    |---5----4----2----8----5----8--7-----|
D|---0----4----5----8--7----|    |---0----0----x----8----5----8--7-----|

2x this sequence



--- FInal-INTRO

--- VERSE

--- CHORUS




INTERLUDE

E|-----x---x---x----8--7-------x---x---x--------x-x--x---x---x--
B|-----x---x---x----11-10------x---x---x---15---x-x--x---x---x--
G|-----7---11--14---10-9-------7---11--14--14---7-7--11--14--7--
D|-0---0---0---0----8--7-------0---0---0---12---0-0--0---0---0--
A|-0---5---9---12---8--7-------5---9---12--0----5-5--9---12--5--
D|-0---x---x---x----8--7-------x---x---x---x----x-x--x---x---x--

-----x---x---x--------x-x--x---x---------|
-----x---x---x---15---x-x--x---x---------|
-----7---11--14--14---7-7--11--14--------|
-----0---0---0---12---0-0--0---0---------|
-----5---9---12--0----5-5--9---12--------|
-----x---x---x---x----x-x--x---x---------|

E|-------------------------------------------------------
B|-7--7-7h8h7--10h8h7--7h8h7------7-7h8h7-10h8h7--7h8h7--
G|-7--7-7------7-------7----------7-7-----7-------7------
D|-0---------------------------8-------------------------
A|-0-----------------------------------------------------
D|-0-----------------------------------------------------

-----------------------------------------------x----------|
------7-7-7-8-7---10h8h7-7-8-7---------7-8-7---8----------|
------7-7-7-7-7--7-------7-7-7------7----------7----------|
---9--9-9-9-9-9-9--------9-9-9---0-9-----------0----------|
-----------------------------------------------0----------|
----------------------------------------------------------|


(shallowed)
E|---x----x----x------x--x---------------------------| 
B|---8----10---12-----11-10---7--7-7h8h7--7--7-7h87--| 
G|---7----9----11-----10-9----7--7-7------7--7-7-----|
D|---5----7----9------8--7----0-----------0----------| 
A|---5----7----9------8--7----0-----------0----------|   
D|---5----7----9------8--7----0-----------0----------|    

E|---x----x----x----x----x--x---------------------------------------------------------| 
B|---7----10---7----8----12-11-----------7h8h7--7--7-7h87--7--7-7h8h7-----------------| 
G|---7----9----6----7----11-10------7--7-7------7--7-7-----7--7-7------9p7-7h9h7---7--|
D|---5----7----4----5----9--8-------0-----------0----------0-----------0---------9----| 
A|---5----7----4----5----9--8-------0-----------0----------0-----------0--------------|   
D|---0----7----4----5----9--8-------0-----------0----------0-----------0--------------|

--- CHORUS (2x)

ENDING
E|-----x---x---x----8--7--|    -----x---x---x-----x----x-x--x---x---x-----x---x---x---|
B|-----x---x---x----11-10-|    ---11---10---13----12---x---x---x---15-----x---x---x---|
G|-----7---11--14---10-9--|    ---10---9----12----11---7---11--14--14-----7---11--14--|
D|-0---0---0---0----8--7--|2x  ---8----7----10----9----0---0---0---12-----0---0---0---|
A|-0---5---9---12---8--7--|    ---8----7----10----9----5---9---12--0------5---9---12--|
D|-0---x---x---x----8--7--|    ---8----7----10----9----x---x---x---x------x---x---x---|






Tap to rate this tab
# A B C D E F G H I J K L M N O P Q R S T U V W X Y Z